Song name
# A B C D E F G H I J K L M N O P Q R S T U V W X Y Z

Rush - Workin Them Angels tab

e|----------------------------------------------------------|
B|----------------------------------------------------------|
G|----------------------------------------------------------|
D|-------------------------8----------------------------8---|
A|--6--10-6--8----6--10-6--6-----6--10-6--8----6--10-6--6---|
E|--4--8--4--6----4--8--4--------4--8--4--6----4--8--4------|

e|-------------------------------------------|
B|-------------------------------------------|
G|-------------------------------------------|
D|-------------------------8-----------------|
A|--6--10-6--8----6--10-6--6----6--10-6--8---|
E|--4--8--4--6----4--8--4-------4--8--4--6---|
Tap to rate this tab
 
# A B C D E F G H I J K L M N O P Q R S T U V W X Y Z