Song name
# A B C D E F G H I J K L M N O P Q R S T U V W X Y Z

Rush - Presentation drum

tm" --



Rush: Presentaion
From the album 2112 (Mercury Records)
Copyright 1976 Core Music Publishing
Music by Lee and Lifeson
Lyrics Peart


Transcribed by Bill Wheeler and Bryan McDonald


q = 105

This part has two types of ride cymbals, during the Priest part ("Don't
annoy us further", and "Yes, we know"), a heavy ride is used, when the
song calms down, use normal ride.
             (Heavy Ride)
     q       e   e   e   e   e   e       e   e   q       e   e   e   e
H|---C-------R---R---R---R---R---R---|---R---R---C-------R---R---C-------|
S|4:---------X---------------X-------|-----------X---------------X-------|
T|4:---------------------------------|-----------------------------------|
F|---X-----------X---X-----------X---|---X---------------X---X-------X---|

                                                                      6
     q       e   e   e   e   e   e       tttts s tttts s tttts s s^s^s^s^s^s
H|---C-------R---R---R---R---R---R---|---------------------------------------|
S|-----------X---------------X-------|---------------------------------------|
T|-----------------------------------|---11111-1-22222-2-33333-3-4-4-5-5-6-6-|
F|---X-----------X---X-----------X---|---------------------------------------|

     q       e   e   e   e   e   e       e   e   e   s s+e   e   s E
H|---C-------C-------R---R---R---R---|---R---R---R---R-C-----C-----C-----|
S|-----------X---------------X-------|-----------X---X-----------X-------|
T|-----------------------------------|-----------------------------------|
F|---X-----------X---X-----------X---|---X-------------X-----X-----X-----|

     q       e   e   e   e   e   e+      e   e+  e   e   e   e   s s s s
H|---C-------R---R---R---R---R---R---|-------C---------------------------|
S|-----------X---------------X-------|---X-------------------------------|
T|-----------------------------------|---------------5--x6--x6---7-7-X-X-|
F|---X-----------X---X---------------|-------X---------------------------|

     q       e   e   e   e   e   s s     e   s s e   e   s s e   s s e
H|---C-------X---X---X---X---X---X-X-|---X---X---X---X---X---X---X---X---|
S|-----------X---------------X-------|-----------X---------------X-------|
T|-----------------------------------|-----------------------------------|
F|---X-----------X-------X-----------|---X-----X-----X-----X-X-----X-X---|

                                                                      6
     e   s s e   e   e   e   e   e       e   s s e   e   e   e   s^s^s^s^s^s
H|---X---X---X---X---X---X---X---X---|---X---X---X---X---X---X---X-----------|
S|-----------X---------------X-------|-----------X---------------X-X---X-X---|
T|-----------------------------------|---------------------------------------|
F|---X-----X-----X-------X-----------|---X-----X-----X-------X-------X-----X-|

     e   s s e   e   e   e   s s e       e   e   e   e   s s e   s s e
H|---X---X---X---X---X---X---X---X---|---X---X---X---X---X---X---X---X---|
S|---X-------X---------------X-------|-----------X---------------X-------|
T|-----------------------------------|-----------------------------------|
F|---------X-----X-------X-----X-X---|---X-----------X-----X-X-----X-X---|

                                                                      6
     e   e   e   e   e   e   s s s s     e   s s e   e   e   s s s^s^s^s^s^s
H|---X---X---X---X---X---X---X---X---|---X---X---X---X---r---X---------------|
S|-----------X---------------X-------|-----------X-------e-----X-X-----------|
T|-----------------------------------|-------------------s---------5-6-6-7-7-|
F|---X---X-------X-------X-----X---X-|---X-----X-----X---t-------------------|

     E     s e   e   s s e   e   e       e   s s e   e   e   e   s s s s
H|---C-------R---R---R---R---R---R---|---R---R---R---R---R---R---R---R---|
S|---X-------X---------------X-------|-----------X---------------X-------|
T|-----------------------------------|-----------------------------------|
F|---------X-----X-----X-X-----------|---X-----X-----X-------X-----X---X-|

                                                                      6
     e   e   e   e   e   e   e   e       e   s s e   e   e   e   s^s^s^s^s^s
H|---R---R---R---R---R---R---R---R---|---R---R---R---R---R---R---R-----R-----|
S|-----------X---------------X-------|-----------X---------------X-X---X-X---|
T|-----------------------------------|---------------------------------------|
F|---X---X-------X-------X-----------|---X-----X-----X-------X-------X-----X-|

     e   s s e   e   e   e   e   e       s s s s e   e   e   s s s s s s
H|---R---R---R---R---R---R---R---R---|---R---R---R---R---R---R---R---R---|
S|---X-------X---------------X-------|-----X-----X---------------X---X-X-|
T|-----------------------------------|-----------------------------------|
F|---------X-----X-------X-----------|---X-----X-----X---------X---X-----|

   e   s s s s e   e   e   e   e     e   s s e   s s s^s^s^s^s^s s^s^s^s^s^s
H|-R---R---R---R---R---R---R---R---|-R---R---R---R---------------------------|
S|---------X---------------X-------|---------X-----X-X-X-X-X-X-X-X-X-X-X-X-X-|
T|---------------------------------|-----------------------------------------|
F|-X-----X---X-X-------X-----------|-X-----X-----X---------------------------|

             (Heavy Ride)
     q       e   e   e   e   e   e       e   e   e   e+  e   e   e   e
H|---C-------R---R---R---R---R---R---|---R---R---C---C---R---R---C---C---|
S|-----------X---------------X-------|-----------X---X-----------X---X---|
T|-----------------------------------|-----------------------------------|
F|---X-----------X---X-----------X---|---X---------------X---X-----------|

   q       e   e   e   e   e   e     e   e   e   s s s^s^s^s^s^s s^s^s^s^s^s
H|-C-------R---R---R---R---R---R---|-R---R---R---R---R-----------------------|
S|---------X---------------X-------|---------X-----X---X-X---------X---------|
T|---------------------------------|-----------------------5-6-6-6---6-6-7-7-|
F|-X-----------X---X-----------X---|-X---------------X-----------------------|

     q       e   e   e   e   e   e       e   e   e   e+  e   e+  e   e
H|---C-------R---R---R---R---R---R---|---R---R---R---C-------C-------C---|
S|-----------X---------------X-------|-----------X---------------X-------|
T|-----------------------------------|-----------------------------------|
F|---X-----------X---X-----------X---|---X-----------X-------X-------X---|

   q       e   e   e   e   e   e     s s s s e+  e   s s s s q     s s s
s e
H|-C-------R---R---R---R---R---R---|---------C---------------C-------------C-|
S|---------X---------------X-------|---------X---------------X-------------X-|
T|---------------------------------|-X-7-------------X-7-----------X-7-------|
F|-X-----------X---X-----------X---|-----X-X-------------X-X-----------X-X---|
                                         R L             R L           R L

     q       e   e   e   e   e   e       e   e   e   e   e   e   e   e
H|---C-------R---R---R---R---R---R---|---R---R---C---C---C---C---C---C---|
S|-----------X---------------X-------|-----------X---X-----------X---X---|
T|-----------------------------------|-----------------------------------|
F|---X-----------X---X-----------X---|---X---X-----------X---X-----------|

         q       e   e   e   e   e   e       e   e   e   s+s e   e   s s
s s
H|---C-------R---R---R---R---R---R---|---R---R---C---C---R---R---R---R---|
S|-----------X---------------X-------|-----------X---X-----------X-------|
T|-----------------------------------|-----------------------------------|
F|---X-----------X---X---------------|---X---X---------X-----X-----X---X-|

     e   e   e   e   e   e   e   e       e   e   e   e   tttttttttttttttt
H|---C-------R---R---R---R---R---R---|---R---R---R---R-------------------|
S|-----------X---------------X-------|-----------X-------XX--------------|
T|-----------------------------------|-----------------------66--77--XX--|
F|---X---X---------------X-------X---|---X-----------X-----XX--XX--XX--XX|
                                                           RL  RL  RL  RL

     q       e   e   e   e   E     s     e   E     E     E     E     E
H|---C-------R---R---R---R---R-------|-------C-----C-----C-----C-----C-----|
S|---X-------X-----------X---X-----X-|---X---------------------------------|
T|-----------------------------------|-------------------------------------|
F|---------------X---X---------------|-------X-----X-----X-----X-----X-----|


     q       e   e   e   e   e   s s     s s s s e   e   s s e   s s e
H|---C-------X---X---X---X---X---X---|---X---X---X---X---X---X---X---X---|
S|-----------X---------------X----(X)|----(X)----X---------------X-------|
T|-----------------------------------|-----------------------------------|
F|---X-----------X-------X-----------|---X-----X-----X-----X-X-----X-X---|

     e   e   e   e   e   e   s s s s     e   s s e   e   e   e   s^s^s^s^s^s
H|---X---X---X---X---X---X---X---X---|---X---X---X---X---X---X---X-----X-----|
S|-----------X---------------X-------|-----------X---------------X-X---X-----|
T|-----------------------------------|---------------------------------------|
F|---X-----------X-------X-----X---X-|---X-----X-----X-------X-------X---X-X-|

     e   s s e   e   e   e   s s e       e   s s s s s s s s s s s s s s
H|---X---X---X---X---X---X---X---X---|---X---X---X---X---X---X---X---X---|
S|---X-------X---------------X-------|-----------X-X-----X-X-----X-X-----|
T|-----------------------------------|-----------------------------------|
F|---------X-----X-------X-----X-----|---X-----X-------X-------X-------X-|

     s s s s s s e   e   e   e   e       e   s s e   e   e   e   tttts s
H|---X---X---X---X---X---X---X---X---|---X---X---X---X---X---X-----------|
S|---X-X-----X-X-------------X-------|-----------X---------------XXXXX-X-|
T|-----------------------------------|-----------------------------------|
F|---------X-----X-------X-----------|---X-----X-----X-------X---X-------|

     e   s s e   e   s s e   e   e       s s s s e   s s s s e   s s s s
H|---R---R---R---R---R---R---R---R---|---R---R---R---R---R---R---R---R---|
S|-----------X---------------X-------|-----X-----X-----X-----X-----X---X-|
T|-----------------------------------|-----------------------------------|
F|---X-----X-----X-----X-X-----------|---X-----X-----X-----X-----X-------|

     e   s s e   e   s s e   e   e       e   s s s s s s e   s s s s s s
H|---R---R---R---R---R---R---R---R---|---R---R---R---R---R---R---R---R---|
S|-----------X---------------X-------|---------X-----X-X-------X-----X-X-|
T|-----------------------------------|-----------------------------------|
F|---X-----X-----X-----X-X-----------|---X---X-----X-----X---X-----X-----|

     e   s s e   e   e   e   e   e       s s s s e   e   s s s s s s e
H|---R---R---R---R---R---R---R---R---|---R---R---R---R---R---R---R---R---|
S|-----------X---------------X-------|-----------X---------------X-------|
T|-----------------------------------|-----------------------------------|
F|---X-----X-----X-------X-----------|---X-X---X---------X-X---X---X-----|

     e   s s e   e   e   e   e   e       e   e   e   s s s s s s s s s s
H|---R---R---R---R---R---R---R---R---|---R---R---R---R-------------------|
S|-----------X---------------X--------|----------X-----X-X-X-X-X-X-X-X-X-|
T|-----------------------------------|-----------------X-X-X-X-X-X-X-X-X-|
F|---X-----X-----X-------X-----------|---X-----------X-------------------|

             (Heavy Ride)
     q       e   e   e   e   e   e       e   e   e   e+  e   e   e   e
H|---C-------R---R---R---R---R---R---|---R---R---C---C---R---R---C---C---|
S|-----------X---------------X-------|-----------X---X-----------X---X---|
T|-----------------------------------|-----------------------------------|
F|---X-----------X---X-----------X---|---X---------------X---X-----------|

     q       e   e   e   e   e   e       e   tttttttttttttttttttts tttttt
H|---C-------R---R---R---R---R---R---|---R-------------------------------|
S|-----------X---------------X-------|-----------------------------------|
T|-----------------------------------|-------111122223333444455556-667777|
F|---X-----------X---X-----------X---|---X-------------------------------|

     q       e   e   e   e   e   e       e   e   e   e   e   e   e   e
H|---C-------R---R---R---R---R---R---|---R---R---C---C---C---C---C---C---|
S|-----------X---------------X-------|-----------X---------------X---X---|
T|-----------------------------------|-----------------------------------|
F|---X-----------X---X-----------X---|---X-----------X---X---X---X---X---|

     q       e   e   e   e   e   e+      e   tttttttts s tttttttttttts s
H|---C-------R---R---R---R---R---R---|---------------O---------------O---|
S|-----------X---------------X-------|---------------X---------------X---|
T|-----------------------------------|-------X7--X7------X7--X7--X7------|
F|---X-----------X---X-----------X---|---X-----XX--XX--P---XX--XX--XX--P-|
                                               RL  RL      RL  RL  RL

     q       e   e   q       e   e       e   e   e   e   s s s s s s s s
H|---C-------C---C---C-------R---R---|---R---R---R---R-------------------|
S|-----------X---------------X-------|-----------X-------X-X-------------|
T|-----------------------------------|-----------------------5-5-6-6-7-7-|
F|---X-----------X---X-----------X---|---X-----------X-------------------|

     e   E     E     q       E     s+    e   e+  e   e   tttttttte   e
H|-------C-----C-----C-------C-----C-|-------C-------R-----------C-------|
S|---------------------------------X-|-------X-------X-----------X-------|
T|---X-------------------------------|-------------------X7--X7----------|
F|-------X-----X-----X-------X-------|---X-----------------XX--XX----X---|

     q       e   e   e   e   e   e       e   e   e   s s+e   e   s E
H|---C-------R---R---R---R---R---R---|---R---R---R---R-C-----C-----C-----|
S|-----------X---------------X-------|-----------X---X-----------X-------|
T|-----------------------------------|-----------------------------------|
F|---X-----------X---X-----------X---|---X-------------X-----X-----X-----|

                                      q = 140
     q       e   e   e   e   e   s s     q       q       q       e   e+
H|---C-------R---R---R---R---R---R---|-----------r-------r-----------C---|
S|-----------X---------------X-------|---F-------e-------e-------F-------|
T|-----------------------------------|-----------s-------s---------------|
F|---X-----------X---X-------------X-|-----------t-------t-----------X---|

      e   e   e   e   e   e   e   e       s s e   e   e   s s e   e   e
H||-------B-------B---r---B-------B---|-------B-------B-------B-------B---|
S||o----------X-------e-------X-------|--(X-X)----X------(X-X)----X-------|
T||o------------------s---------------|-----------------------------------|
F||---------------X---t---X-------X---|-------X-------X-------X-------X---|

                    ____________________________________
                    | 1.>       >               >
                    |   e   s s s s s s s s s s s s e
H|------------------|-------------------------------C----||
S|--------%---------|---F---X-X-X---X-X-X-X-X---X-X-----o||
T|------------------|-----------------------------------o||
F|------------------|-------------X-----------X-----X----||

 _________________________________    ___________________________________
 | 2.                                 | 3.> >   > > >   >
> >   > > >
 |   E     s s s s s s s s s s s e+   |   s s s s s s s s s s s s s s e+
H|-----------r-----------O---O---C---||-------------------------------C---||
S|---------X-e---X-X-X-X------------o||---X-X-X-X------------------------o||
T|--x5-------s-5--------------------o||-----------5-5-5-5-6-6-6-6-7-7----o||
F|-----------t-----------X-P---P-X---||-------------------------------X---||

 _________________________________     ___________________________________
 | 4.     3                           | 5.
 |  q^^^^^q^^^^^q     q      e   e+   |   e   s s s s s e   s s s s s s e+
H|-------------------------------C---||---------------------------------C---||
S|--F-------------------------------o||---F-------------F-----X-X-X-X------o||
T|--------6-----6-----7-----x6------o||-------6-6-7---------6---------5----o||
F|-------------------------------X---||-------------X-X-----------------X---||

 _________________________________    ____________________________________
 | 6.                                 | 7.
 |   s s s s s s s s s s s s s s e+   |   s s s s s s s s s s s s s s e+
H|-------------------------------C---||-------------------------------C---|
S|---X(X)-(X)-(X)-(X)X-X------------o||---X-X-X---X---X---X---X---X-------|
T|-------5---6---6-------5-5-6-6----o||---------5---5---5---5---5---5-----|
F|-------------------------------X---||-------------------------------X---|

   e   e   e   e   s s e   e   e             s s e   e   e   s s e   e   e+
H|-----B-------B-------C-------B---|-----|-------B---------------B-------C---|
S|---------X------(X-X)----X-------|--%--|--(X-X)----X------(X-X)----X---X---|
T|---------------------------------|-----|-----------------------------------|
F|-----X-------X-------X-------X---|-----|-------X-------X-------X-----------|

     e   e   e   e   e   e   e   e+      q       q       h
H|-------------------------------C---|-----------r-------r---------------||
S|---------------------------X-------|-----------e-------e---------------||
T|------x5--x5--x6--x6--x7-----------|-----------s-------s---------------||
F|-------------------------------X---|-----------t-------t---------------||

__________________________________________________________________________

KEY:

 Hi-hats & Cymbals  -O-X-H--C-R-B-S-T-c-
             Snare  -X-S-R-F------------
               Tom  -1-2-3-4-5-6-X------
       Foot Pedals  -X-P----------------


Hi-hats & Cymbal line:

Hi-hats  O - OPEN HH
         X - CLOSED HH
         P - PEDAL HH
         H - HALF OPEN HH
Cymbals  C - CRASH
         c - CRASH CHOKE
         R - RIDE
         B - RIDE BELL
         S - SPLASH
         T - CHINA (AKA TRASH)

Snare line:
     X - SINGLE HIT
     R - RIMSHOT
     F - FLAM (Hit with both sticks, one slightly before the other)
     S - SIDE STICK
     x - GRACE NOTE (hit snare slightly and right before the prime note)

Tom line:
        Notated by number. 1 being the highest sounding to the lowest tom.
        (The numbers depend on how many toms Neil is using in any given song,
        it's up to you to fit them in your drumset.)
        X - Floor tom
 NOTE - Originally this key had two tom lines, but I decided to use
        just one too keep it simpler.
        A second tom line will be added to the bar ONLY if two toms are
        played at once.
 Foot Pedal line:
        X - KICK DRUM
        P - Hi-hat pedal
        When the right and left kick drums are being used together they will
        be notated with a right (R) or a left (L)

Rhythm:
w whole note                    W dotted whole note
h half note                     H dotted half note
q quarter note                  Q dotted quarter note
e eighth note                   E dotted eighth note
s sixteenth note                S dotted sixteenth note
t thirty-second note            T dotted thirty-second note

% Repeat last measure

Fermata - Hold the note at pleasure

> - Accent: When a note is given special emphasis

||----||
||o--o||  Repeat
||o--o||  Signs
||----||









	
	
	untitled
	
Tap to rate this tab
 
# A B C D E F G H I J K L M N O P Q R S T U V W X Y Z