Song name
# A B C D E F G H I J K L M N O P Q R S T U V W X Y Z

Rush - Lakeside Park drum

.htm" --



Rush: Lakeside Park
From the album Caress of Steel (Mercury Records)
Copyright 1975 Core Music Publishing
Music by Lifeson
Lyrics by Peart


Transcribed by Bryan McDonald


                            6        3
       e   e   e   e   s^s^s^s^s^s s^s^s e   e   s s s s e   s s e   s s s s
H|-----------------------------r---r-r-----|-C---X---X---X---X---X---X---X---|
S|4:-xxX---------------X-X-----e---e-e-----|-------------------------X-------|
T|4:-------4---5---6-------5-5-s-6-s-s-6-6-|---------------------------------|
F|-----------------------------t---t-t-----|-X-----X---X-X-----X-X-----X---X-|

Play 10 times
      e   s s s s e   s s e   e   s s       e   s s s s e   e   s s s s s s
H||---X---X---X---X---X---X---X---X----||---X---X---X---X---O---------------|
S||:--------------------------X-------:||-------------------X---X-X---------|
T||:----------------------------------:||---------------------------5-5-6-6-|
F||---X-----X---X-X-----X-X-----X---X--||---X-----X---X-X-------P-----------|

      e   s s e   e   e   e   s s s s     e   s s e   e   e   e   s s s s
H||---C---R---R---R---R---R---R---R---|---R---R---R---R---R---R---R---R---|
S||:----------X---------------X-------|-----------X---------------X-------|
T||:----------------------------------|-----------------------------------|
F||---X-----X-----X-------X-----X---X-|---X-----X-----X-------X-----X---X-|
                                     ___________________________________
                                     | 1.
     e   s s e   e   e   e   s s s s |   e   s s e   e   s s s s s s e
H|---R---R---R---R---R---R---R---R---|---R---R---R---R---R---R---R-T-r---||
S|-----------X---------------X-------|-----------X---------X-----X---e--:||
T|-----------------------------------|-------------------------------s--:||
F|---X-----X-----X-------X-----X---X-|---X-----X-----X---------X---X-t---||
 ___________________________________
 | 2.                                    Play 3 times
 |   e   s s e   e   s s s s s s s s      e   e   e   e+  e   e   s E
H|---R---R---R---R---R---R---R-T-----||---C---R-------R-------R-----C-----||
S|-----------X---------X-----X-------||:---------------------------------:||
T|------------------------------x4-4-||:---------------------------------:||
F|---X-----X-----X---------X---------||---X-------P---------------P-X-----||

           3                 3                    6        3
     q^^^^^q^^^^^q         s^s^s e   e   e   s^s^s^s^s^s s^s^s e
H|---C-----C-----C-----|---r-r-----------------------r---r-r-------|
S|2:-------------------|---e-e-X-X---4---5---X-------e---e-e-------|
T|4:-------------------|---s-s-----------------6-7---s-5-s-s-5-5---|
F|---X-----X-----X-----|---t-t---------------------X-t---t-t-------|

     tttts tttts tttts tttts tttts s     e   s s s s e   s s e   s s s s
H|-----------------------------------|---C---X---X---X---X---X---X---X---|
S|---XXXXX---------------------------|---------------------------X-------|
T|---------44444-55555-66666-77777-7-|-----------------------------------|
F|-----------------------------------|---X-----X---X-X-----X-X-----X---X-|

   Play 18 times
      e   s s s s e   s s e   s s s s       e   e   s s s s s s s s s s s s
H||---X---X---X---X---X---X---X---X----||---X---X---X---X---X-O---O---O-----|
S||:--------------------------X-------:||---X-----X-----X---X-----------X-X-|
T||:----------------------------------:||-----------------------------------|
F||---X-----X---X-X-----X-X-----X---X--||-------X-----X---X-----X---X---X---|

     e   s s e   e   e   e   s s s s     e   s s e   e   e   e   s s s s
H|---C---R---R---R---R---R---R---R---|---R---R---R---R---R---R---R---R---|
S|-----------X---------------X-------|-----------X---------X-----X---X-X-|
T|-----------------------------------|-----------------------------------|
F|---X-----X-----X-------X-----X---X-|---X-----X-----X---------X---X-----|

     e   s s e   e   s s e   s s s s     e   s s e   s s s s s s tttts s
H|---R---R---R---R---R---R---R---R---|---R---R---R---O-----O-----O-------|
S|-----------X---------------X-------|-----------X-----X-X---X-X--XXXX-X-|
T|-----------------------------------|-----------------------------------|
F|---X-----X-----X-----X-X-----X---X-|---X-----X-----X-P---X-P---X-P-----|

     e   s s e   e   e   e   s s s s     e   s s e   e   e   e   s s s s
H|---R---R---R---R---R---R---R---R---|---R---R---R---R---R---R---R---R---|
S|-----------X---------------X-------|-----------X---------X-----X---X-X-|
T|-----------------------------------|-----------------------------------|
F|---X-----X-----X-------X-----X---X-|---X-----X-----X---------X---X-----|

     e   s tte   e   e   e   s s s s     e   s s e   e   e   e   s s s s
H|---R---R---R---R---R---R---R---R---|---R---R---R---R---R---R---R-------|
S|-----------X---------------X-------|-----------X---------X-----X-------|
T|-----------------------------------|------------------------------x4-4-|
F|---X-----XX----X-------X-----X---X-|---X-----X-----X---------X---X-----|

   Play 3 times                                  3
      e   e   e   e+  e   e   s E          q^^^^^q^^^^^q
H||---C---R-------R-------R-----C-----||---C-----C-----C-----|
S||:---------------------------------:||---------------------|
T||:---------------------------------:||---------------------|
F||---X-------P---------------P-X-----||---X-----X-----X-----|

           3                 3                    6        3
     q^^^^^q^^^^^q         s^s^s e   e   e   s^s^s^s^s^s s^s^s e
H|---C-----C-----C-----|---r-r-----------------------r---r-r-------|
S|2:-------------------|---e-e-X-X---4---5---X-------e---e-e-------|
T|4:-------------------|---s-s-----------------6-7---s-5-s-s-5-5---|
F|---X-----X-----X-----|---t-t---------------------X-t---t-t-------|

       3                     3
     s^s^s e   e   e   q^^^^^q^^^^^q         e   s s s s tttts s s s tttts s
H|---r-r---------------------------------|-----------r-----------------------|
S|---e-e---------------------------------|-----------e-----------------------|
T|---s-s-4-4---5---6---7-----7-----5-----|---4---4-4-s-4-55555-5-6-6-77777-7-|
F|---t-r---------------------------------|-----------t-----------------------|

     e   e   e   e+  e   e   e   e+      e   e   e   e+  e   e   s s s s
H|---C---R-------R-------R-------R---|-------R-------R-------R-----R-r---|
S|-----------------------------------|-------------------------------e---|
T|-----------------------------------|-------------------------------s---|
F|---X-------P---------------P---X---|---X-------P---------------P-X-t-X-|

Play 6 times
      e   e   e   e+  e   e   e   e+      e   e   e   e+  e   e   s s s s
H||-------R-------R-------R-------R---|-------R-------R-------R-----R-r----||
S||:----------------------------------|-------------------------------e---:||
T||:----------------------------------|-------------------------------s---:||
F||---X-------P---------------P---X---|---X-------P---------------P-X-t-X--||

     e+  e   e   e+  e   e   e+  e       e   e+  e   e   e   e   s s s s
H|---R-----------R-----------R-------|-------R-----------R---------------|
S|-----------------------------------|-----------------------X---X-------|
T|-----------------------------------|-----------------------------5-6-6-|
F|---X-------P---X-------P---X-------|---P---X-------P---X---------------|

     e   e   e   e   e   e   e   e       e   e   e   e   e   e   s s e
H|---C---R---R---R---R---R---R---R---|---R---R---R---R---R---R---R---R---|
S|-----------X---------------X-------|-----------X---------------X-------|
T|-----------------------------------|-----------------------------------|
F|---X---------------------------X---|---X-------------------------X-----|

     e   e   e   e   e   e   e   e       e   e   e   e   s s s s s s s s
H|---R---R---R---R---R---R---R---R---|---R---R---R---R-------------------|
S|-----------X---------------X-------|-----------X-----xxX-X-------------|
T|-----------------------------------|-----------------------4-4-5-5-6-6-|
F|---X---X-----------------------X---|---X-------------------------------|

     e   e   e   e   s s e   s s s s     e   s s e   e   s s e   s s s s
H|---C---R---R---R---R---R---R---R---|---R---R---R---R---R---R---R---R---|
S|-----------X---------------X-------|-----------X---------------X-------|
T|-----------------------------------|-----------------------------------|
F|---X-----------X-----X-X-----X---X-|---X-----X-----X-----X-X-----X---X-|

                                                                      6
     e   e   e   e   e   e   e   e       e   e   e   e   s s s s s^s^s^s^s^s
H|---R---R---R---R---R---R---R---R---|---R---R---R---R-----------------------|
S|-----------X---------------X-------|-----------X-----xxX-X-----------------|
T|-----------------------------------|-----------------------4-4-4-4-5-5-6-6-|
F|---X---X-------X-------X-------X---|---X---X-------------------------------|

     e   s s e   e   e   e   s s s s     e   s s e   s s s s e   s s s s
H|---C---R---R---R---R---R---R---R---|---R---R---R---R---R---R---R---R---|
S|-----------X---------------X-------|-----------X---------------X-------|
T|-----------------------------------|-----------------------------------|
F|---X-----X-----X-------X-----X---X-|---X-----X-------X---X-X-----X---X-|

     e   e   e   e   e   e   e   e       e   e   e   tttttttttttttttttttt
H|---R---R---R---R---R---R---R---R---|---R---R---R------------------------|
S|-----------X---------------X-------|-----------X---XXXX4444555566667777-|
T|-----------------------------------|------------------------------------|
F|---X---X-------X-------X-----------|---X---X----------------------------|

     e   s s e   e   e   e   s s s s     e   s s e   e   e   s s s s s s
H|---C---R---R---R---R---R---R---R---|---R---R---R---R---R---R---R---R---|
S|-----------X-------X-------X-------|---X-------X-------X-------X-------|
T|-----------------------------------|-----------------------------------|
F|---X-----X-----X---------X---X---X-|---------X-----X---------X---X---X-|

     e   e   e   e   e   e   e   s s     e   s   e s+e   e   s s s s s s
H|---R---R---R---C---R---R---R---R---|---R---C-----C-----C---------------|
S|---X-------X-------X-------X-------|---X-------------------X-X---------|
T|-----------------------------------|---------------------------6-6-7-7-|
F|---------------X-----------------X-|-------X---P-X-----X---------------|

     e   e   e   e   e   e   e   e       e   e   e   e   tttttttttttttttt
H|---C---R---R---C---R---R---R---R---|---C---R---R---R--------------------|
S|-----------X---------------X-------|-----------X-------XXXXXXXX---------|
T|-----------------------------------|----------------------------66667777|
F|---X-----------X-------X-----------|---X--------------------------------|

     e   e   e   e   e   e   e   e       e   e   e   e+  q       tttttttt
H|---C---R---R---C---R---R---R---R---|-------C---C---C-----------RRRRRRRR-|
S|-----------X---------------X-------|-----------X------------------------|
T|-----------------------------------|---X--------------------------------|
F|---X-----------X-------X-----------|-------X---X---X--------------------|

     ttttttttq+      h
H|---RRRRRRRRR-----------------------|
S|-----------------------------------|
T|-----------------------------------|
F|-----------------------------------|


KEY:

 Hi-hats & Cymbals  -O-X-H--C-R-B-S-T-c-
             Snare  -X-S-R-F------------
               Tom  -1-2-3-4-5-6-7-X----
       Foot Pedals  -X-P----------------


Hi-hats & Cymbal line:

Hi-hats  O - OPEN HH
         X - CLOSED HH
         P - PEDAL HH
         H - HALF OPEN HH
Cymbals  C - CRASH
         c - CRASH CHOKE
         R - RIDE
         B - RIDE BELL
         S - SPLASH
         T - CHINA (AKA TRASH)

Snare line:
     X - SINGLE HIT
     R - RIMSHOT
     F - FLAM (Hit with both sticks, one slightly before the other)
     S - SIDE STICK
     x - GRACE NOTE (hit snare slightly and right before the prime note)

Tom line:
        Notated by number. 1 being the highest sounding to the lowest tom.
        (The numbers depend on how many toms Neil is using in any given song,
        it's up to you to fit them into your drumset.)
        X - Floor tom
 NOTE - A second tom line will be added to the bar ONLY if two toms are
        played at once.
 Foot Pedal line:
        X - KICK DRUM
        P - Hi-hat pedal
        When the right and left kick drums are being used together they will
        be notated with a right (R) or a left (L)

Rhythm:
w whole note                    W dotted whole note
h half note                     H dotted half note
q quarter note                  Q dotted quarter note
e eighth note                   E dotted eighth note
s sixteenth note                S dotted sixteenth note
t thirty-second note            T dotted thirty-second note

% - Repeat last measure

Fermata - Hold the note at pleasure

> - Accent: When a note is given special emphasis

||----||
||:--:||  Repeat
||:--:||  Signs
||----||

As a general rule, the rhythm shown above the staff will be the composite
rhythm for all the drums, as this is the only way to notate this, short
of assigning each line on the staff it's own rhythm :P.









	
	
	untitled
	
Tap to rate this tab
 
# A B C D E F G H I J K L M N O P Q R S T U V W X Y Z