Song name
# A B C D E F G H I J K L M N O P Q R S T U V W X Y Z

Rush - Closer To The Heart drum

C - Crash                 R - Ride
HH - Hi-Hat               T - Tom
S - Snare                 O - Open Hi-Hat
B - Bass Pedal


C  X---------------|X---------------|
HH --X-X-X-X-X-X-X-|--X-X-X-X-X-X-X-|
S  --------X-------|--------X-------|
B  X-----X-------X-|X-----X-------X-|

C  ----------------|----------------|----------------|----------------|
HH X-X-X-X-X-X-X-X-|X-X-X-X-X-X-X-X-|X-X-X-X-X-X-X-X-|X-X-X-X-X-X-X-X-|
S  --------X-------|--------X-------|--------X-------|--------X-------|
B  X-----X-----X---|--X-X---------X-|X-----X-----X---|--X-X---------X-|

C  ------------C-|------------------|------------------------C|
HH X-X-X-X-X-X---|X-X-X-X-X-X-O-X---|-------------------------|
S  --------X-----|--------X-----X-X-|X-X----------------------|
T  --------------|------------------|----3-3-4-4-5-5-6-6-7-7--|
B  X-----X-----X-|--X-X-------X-----|------------------------X|

                    |        |
                    |  REST  |
                    |        |

C  C---------------|C---------------|
HH --X-X-X-X-X-X-X-|--X-X-X-X-X-X-X-|
S  --------X-------|--------X-------|
B  X-----X-------X-|X-----X-------X-|

C  ----------------|----------------|
HH X-X-X-X-X-X-X-X-|X-X-X-X-X-X-X-X-|
S  --------X-------|--------X-------|
B  X-----X-----X-X-|----X-X---X-X---|

C  ----------------|----------------|C---------C-|------------------|
HH X-X-X-X-X-X-X-X-|X-X-X-X-X-X-X-X-|--X-X-X-----|X-X-X-X-X-X-O-X---|
S  --------X-------|--------X-------|--------X---|--------X-----X-X-|
B  X-----X-----X---|--X-X---------X-|X-----X---X-|--X-X-------X-----|

C  ------------------C-|----------|C-----C-----C-|
HH --------------------|----------|--------------|
S  X-------------------|----------|--------------|
T  --4-4-5-5-5-6-6-6---|--4-4-4-5-|--4-4---5-5---|
B  ------------------X-|----------|X-----X-----X-|

                    |        |
                    |  REST  |
                    |        |

C  X-------------|----------------|--------------|
HH --X---X---X---|X---X---X---X---|X---X---X---X-|
S  --X-------X---|----X-------X---|----X-------X-|
B  X---X---X-----|X-X---X---X-----|X-X---X---X---|

C  ------------------------|
HH ------------------------|
S  X---X-X-X---X---X-X-X-X-|
B  ------------------------|

C  X-------------|----------------|--------------|
HH --X---X---X---|X---X---X---X---|X---X---X---X-|
S  --X-------X---|----X-------X---|----X-------X-|
B  X---X---X-----|X-X---X---X-----|X-X---X---X---|

C  -----------------------|
HH -----------------------|
S  XXXXXXXX---------------|
T  ---------4-4-5-6---7-7-|
B  -----------------------|

C  X-------------|----------------|--------------|
HH --X---X---X---|X---X---X---X---|X---X---X---X-|
S  --X-------X---|----X-------X---|----X-------X-|
B  X---X---X-----|X-X---X---X-----|X-X---X---X---|

C  ------------------|
HH ------------------|
S  X-X-X-------------|
T  ------444-4-5-6-7-|
B  ------------------|

C  X-------------|----------------|--------------|
HH --X---X---X---|X---X---X---X---|X---X---X---X-|
S  --X-------X---|----X-------X---|----X-------X-|
B  X---X---X-----|X-X---X---X-----|X-X---X---X---|

C  ----------------X|
HH O----------------|
S  --X-X-X-X-X-X-X--|
B  X-X-X-X-X-X-X-X-X|

                    |        |
                    |  REST  |
                    |        |

R  X-X-X-X-X-X-X-X-|X-X-X-X-X-X-X-X-|
S  X-X-X-X-X-X-X-X-|X-X-X-X-X-X-X-X-|
B  ----------------|----------------|

C  X-------------|----------------|X-------------|----------------|
R  --X---X---X---|X---X---X---X---|--X---X---X---|X---X---X---X---|
S  --X-------X---|----X-------X---|--X-------X---|----X-------X---|
B  X---X---X-----|--X---X---X---X-|X---X---X-----|--X---X---X---X-|

C  X---X-----X---|--X-----X-------|C-------------|--------------|
R  --X-----X-----|X-----X---------|--------------|--------------|
HH --------------|----------------|--X---X---X---|X---X---X---X-|
S  --X-----------|X---------X-X-X-|--X-------X---|----X-------X-|
B  X---X-----X---|--X-----X-------|X---X---X-----|X-X---X---X---|

C  ----------C-|----------------|----------C-|----------------|
HH X-X---X-----|X---X---X---X---|X-X---X-----|X---X---X---X---|
S  --X-------X-|----X-------X---|--X-------X-|----X-------X---|
B  X---X---X---|--X---X---X---X-|X---X---X---|--X---X---X---X-|

C  ----------C-|--------------------------|
HH X-X---X-----|--------------------------|
S  --X-------X-|X-X-X---X-----X-X-X-X-----|
T  ------------|----------4-4---------4-4-|
B  X---X---X---|--------------------------|

C  X---------X---|----------------|X---------X---|----------------|
R  --X---X-------|X---X---X---X---|--X---X-------|X---X---X---X---|
S  --X-------X---|----X-------X---|--X-------X---|----X-------X---|
B  X---X---X-----|--X---X---X---X-|X---X---X-----|--X---X---X---X-|

C  --------------X-|----------------|
R  ----------------|X---X---X---X---|
S  X-X-------------|----X-------X---|
T  ----4-4-5-5-88--|----------------|
B  --------------X-|--X---X---X---X-|

C  X---------X-|----------------|
R  --X---X-----|X---X---X---X---|
S  --X-------X-|----X-------X---|
B  X---X---X---|--X---X---X---X-|

C  ------------------------------|--------------------------------|
S  ------------------------------|--------------------------------|
T  1-1-1-1-2-2-2-2-3-3-3-3-4-4-4-|5-5-5-5-6-6-6-6-7-7-7-7-8-8-8-8-|
B  X-------X-------X-------X-----|X-------X-------X-------X-------|

C  X-----------X-----------X-|----------------|
R  --------------------------|X---X---X---X---|
S  --X-X-X-X-X---X-X-X-X-X---|----X-------X---|
B  X-----------X-----------X-|--X---X---X---X-|

C  X---------X-|----------------|--------------X-|----------------|
R  --X---X-----|X---X---X---X---|----------------|X---X---X---X---|
S  --X-------X-|----X-------X---|X-X-------------|----X-------X---|
T  ------------|----------------|----4-4-5-5-88--|----------------|
B  X---X---X---|--X---X---X---X-|--------------X-|--X---X---X---X-|

C  X---------X-|----------------|X---------X-|----------------|
R  --X---X-----|X---X---X---X---|--X---X-----|X---X---X---X---|
S  --X-------X-|----X-------X---|--X-------X-|----X-------X---|
B  X---X---X---|--X---X---X---X-|X---X---X---|--X---X---X---X-|
Tap to rate this tab
# A B C D E F G H I J K L M N O P Q R S T U V W X Y Z