Song name
# A B C D E F G H I J K L M N O P Q R S T U V W X Y Z

Rush - Leave That Thing Alone drum

NOT MY TAB. I just thought it would be good to have these here on UG. Credit goes to those below.



Rush: Leave That Thing Alone
From the album Counterparts (Atlantic Records)
Copyright 1993 Core Music Publishing
Music by Lee and Lifeson

Comments/corrections to Bryan McDonald 

Transcribed by Bryan McDonald


__________________________________________________________________________

NOTES: This song is full of electronic/industrial percussion and effects
I'm not sure how to name (those with an "?"), due to my lack of
electronic percussion knowledge.
If anyone knows the correct term for any of these sounds, please e-mail
to correct it.
__________________________________________________________________________

q = 120

     e   e   e   e   e   e   e   e       e   e   e   e   e   e   e   s s
H|---C---------------X---X---X---X---|---X---X---X---X---X---X---X---X---|
S|4:---------X---------------X-------|-----------X---------------X-------|
T|4:---------------------------------|-----------------------------------|
F|---X---------------------------X---|---X-----------------------------X-|

     e   e   e   e   e   e   e   e        e   e   e   e   e   e   e   e
H|---X---X---X---X---X---X---X---X---|----X---X---X---X---X---X---X---X--|
S|-----------X---------------X-------|------------X---------------X------|
T|-----------------------------------|-----------------------------------|
F|---X---------------------------X---|----X------------------------------|

     e   e   e   e   e   e   e   e       e   e   e   s s s s e   e   e
H|---C-------X---X---X---X---X---X---|---X---X---X---X---X---X---X---O---|
S|-----------X---------------X-------|-----------X---------------X-------|
T|-----------------------------------|-----------------------------------|
F|---X---------------------------X---|---X-----------X-X---X-X-----------|

      e   e   e   e   e   e   e   e       e   e   e   s s s s e   e   e
H||---X---X---X---X---X---X---X---X---|---X---X---X---X---X---X---X---O---||
S||:----------X---------------X-------|-----------X---------------X------:||
T||:----------------------------------|----------------------------------:||
F||---X---------------------------X---|---X-----------X-X---X-X-----------||

     e   e   e   e   e   e   e   e       e   e   e   e s s s s s s s e
H|---X---X---X---X---X---X---X---X---|---X---X---X---H---H---H---C---C---|
S|-----------X---------------X-------|-----------X---------------X-------|
T|-----------------------------------|-----------------------------------|
F|---X---------------------------X---|---X-------------X---X---X---X-X---|

     e   e   e   e   e   e   e   e       e   e   e   e   e   e   e   e
H|---C-------R---R---R---R---R---R---|---R---R---R---R---R---R---R---R---|
S|-----------X---------------X-------|-----------X---------------X-------|
T|-----------------------------------|-----------------------------------|
F|---X-------------------X-------X---|---X-------------------X-------X---|

     e   e   e   e   e   e   e   e       e   s s e   e   e   e   e   e
H|---R---R---R---R---R---R---R---R---|---R---R---R---R---R---R---R---R---|
S|-----------X---------------X-------|-----------X---------------X-------|
T|-----------------------------------|-----------------------------------|
F|---X-------------------X-------X---|---X-----X-----X-------X-----------|

     e   e   e   e   e   e   e   e       e   e   e   e   e   s s e   e
H|---R---C-------R---R---R---R---R---|---R---R---R---R---R---R---R---R---|
S|-----------X---------------X-------|-----------X---------------X-------|
T|-----------------------------------|-----------------------------------|
F|-------X-------X---X---------------|-------X-------X---X-----X-----X---|

     e   e   e   e   e   e   e   e       e   s s e   e   e   e   q
H|---R---R---R---R---R---R---R---R---|---R---R---R---R---R---R-----------|
S|-----------X---------------X-------|-----------X---------------?-------|
T|-----------------------------------|-----------------------------------|
F|---X-------------------X-------X---|---X-----X-----X-------X-----------|

     e   e   e   e   e   e   e   e       e   e   e   s s s s e   e   e
H|---C-------X---X---X---X---X---X---|---X---X---X---X---X---X---X---O---|
S|-----------X---------------X-------|-----------X---------------X-------|
T|-----------------------------------|-----------------------------------|
F|---X---------------------------X---|---X-----------X-X---X-X-----------|

     e   e   e   e   e   e   e   e       e   e   e   s s s s e   e   e
H|---X---X---X---X---X---X---X---X---|---X---X---X---X---X---X---X---O---|
S|-----------X---------------X-------|-----------X---------------X-------|
T|-----------------------------------|-----------------------------------|
F|---X---------------------------X---|---X-----------X-X---X-X-----------|

     e   e   e   e   e   e   e   e       e   e   e   s s s s e   e   e
H|---X---O---X---X---X---X---X---X---|---X---X---X---X---X---X---X---O---|
S|-----------X---------------X-------|-----------X---------------X-------|
T|-----------------------------------|-----------------------------------|
F|---X---------------------------X---|---X-----------X-X---X-X-------X---|

     e   e   e   e   e   e   e   s s     e   s s e   e s s s s s e   e
H|---X---X---X---X---X---X---X---X---|---H---H---H---H---H---H---C---H---|
S|-----------X---------------X-----X-|-----------X---------------X-------|
T|-----------------------------------|-----------------------------------|
F|---X---------------------------X---|---X-----X-------X---X---X---------|

Play 4 times       T = Tambourine(?)    I = Industrial Sound
      e   s s s s s s s s e   q           e   s s s s s s s s e   e   e
H||---H-------T---------------T-------|-----------T---------------T-------||
S||:----------------------X---?-------|-----------------------X---I---?--:||
T||:------7-7-X-1-1-1-1-1-------------|-------7-7-X-1-1-1-1-1------------:||
F||---X-------X-------X-------X-------|---X-------X-------X-------X-------||

     e   e   e   s s s s s s e   e       e   e   e   s s s s s s e   e
H|---C---H---H---H---H---H---H---H---|---H---H---H---H---H---H---H---H---|
S|-----------X---------------X-------|-----------X---------------X-------|
T|-----------------------------------|-----------------------------------|
F|---X-------------X---X---X---------|---X---X---------X---X---X---------|

     e   e   e   s s s s s s e   e       e   e   e   s s s s s s e   e
H|---H---H---H---H---H---H---H---H---|---H---H---H---H---H---H---H---H---|
S|-----------X---------------X-------|-----------X---------------X-------|
T|-----------------------------------|-----------------------------------|
F|---X---X---------X---X---X---------|---X---X---------X---X---X---------|

     e   e   e   s s s s s s e   e       e   e   e   s s s s s s e   e
H|---H---H---H---H---H---H---H---H---|---H---H---H---H---H---H---C---C---|
S|-----------X---------------X-------|-----------X---------------X-------|
T|-----------------------------------|-----------------------------------|
F|---X---X---------X---X---X---------|---X---X---------X---X---X-----X---|

         >   >   >   >   >       >   >   >   >   >   >
     e   s s e   s s e   s s     e   s s e   s s e   s s
H|---C---R-R-R---R-R-R---R-R-|---R---R-R-R---R-R-R---R-R-|
S|3:-------------------------|---------------------------|
T|4:-------------------------|---------------------------|
F|---X-----------------------|---------------------------|

     >   >   >   >   >     >
     e   s s e   e   s s s s+    e   e   e   e   e   s s
H|---R---R-R-R---R---------C-|-------R---R---R---R---R---|
S|-------------------X-X-X-X-|-------------------X----(X)|
T|---------------------------|---------------------------|
F|---------------------------|-----------X-------X-------|

     e   e   e   e   q           e   e   e   e   s s s s
H|---R---R---R---R---C-------|---C---R---R---R---R-R-R---|
S|-------------------X-------|---------------X---X-----X-|
T|---------------------------|---------------------------|
F|---X-------X-------X-------|---X-------X-------X-------|

     e   e   e   e s s s s s+    e   e   e   e   e   s s
H|---R---R---R---R---------C-|-------R---R---R---R---R---|
S|-----------------X-X-----X-|-------------------X----(X)|
T|---------------------7-X---|---------------------------|
F|---X-------X-------X-------|-----------X-------X-------|

     e   e   e   s s e s s s     e   e   e   e   s s s s
H|---R---R---R---R---R---R---|---C-------R---R---R-R-R---|
S|-----------------X-------X-|---------------X---X-----X-|
T|---------------------------|---------------------------|
F|---X-------X-------X-------|---X-------X-------X-------|

     e   e   tttts s s s s s     e   e   e   e   s s s s
H|---R---R-----------------C-|-------R---R---R---R-R-R---|
S|-----------XXXXX-X-X-----X-|---------------X---X-----X-|
T|---------------------7-X---|---------------------------|
F|---X-------X-------X-------|---X-------X-------X-------|

     e   e   e   s s e   e       e   e   e   e   s s s s
H|---R---R---R----------(C)--|---C---R---R---R---R-R-R---|
S|---------------X-X----(X)--|---------------X---X-----X-|
T|---------------------------|---------------------------|
F|---X-------X-------X-------|---X-------X-------X-------|

     e   e   s s s s s s s s     e   s s e   e   s s s s
H|---R---R-----O-------O---C-|-------R-R-R---R---R-R-R---|
S|---------------X-X-X---X-X-|---------------X---X-----X-|
T|---------------------------|---------------------------|
F|---X-------X---P---X---P---|-----------X-------X-------|

     e   e   e   s s e   e       e   e   e   e   s s s s
H|---R---R---R-------C-------|---R---R---R---R---R-R-R---|
S|---------------X-X-----X---|---------------X---X-----X-|
T|---------------------------|---------------------------|
F|---X-------X-------X-------|---X-------X-------X-------|

     e   e   e   s s s s s s
H|---R---R---R---------------|
S|---------------X-X-X-X-X-X-|
T|---------------------------|
F|---X-------X-------X-------|

     e   e   e   e   e   e   e   e   e   e   e   e
H|---C-------R---R---R---R---R---R---R---R---R---R---|
S|6:---------X---------------X---------------X-------|
T|4:-------------------------------------------------|
F|---X---X---X---X---X---X---X---X---X---X---X---X---|

Play 3 times
      e   e   e   e   e   e   e   e   e   e   e   e
H||---R---R---R---R---R---R---R---R---R---R---R---R---||
S||:----------X---------------X---------------X------:||
T||:-------------------------------------------------:||
F||---X---X---X---X---X---X---X---X---X---X---X---X---||

     e   e   e   e   e   e   e   e   e   e   e   e
H|---?---R---R---R---R---R---R---R---R---R---R---R---|
S|-----------X---------------X---------------X-------|
T|---------------------------------------------------|
F|---X---X---X---X---X---X---X---X---X---X---X---X---|

Play 3 times
      e   e   e   e   e   e   e   e   e   e   e   e
H||---R---R---R---R---R---R---R---R---R---R---R---R---||
S||:----------X---------------X---------------X------:||
T||:-------------------------------------------------:||
F||---X---X---X---X---X---X---X---X---X---X---X---X---||

     e   e   e   e   e   e   e   e   e   e   e   e
H|---I---R---R---R---R---R---R---R---R---R---R---R---|
S|-----------X---------------X---------------X-------|
T|---------------------------------------------------|
F|---X---X---X---X---X---X---X---X---X---X---X---X---|

     e   e   e   e   e   e   e   e   e   e   e   e
H|---?---R---R---R---R---R---R---R---R---R---R---R---|
S|-----------X---------------X---------------X-------|
T|---------------------------------------------------|
F|---X---X---X---X---X---X---X---X---X---X---X---X---|

     e   e   e   e   e   e   e   e   e   e   e   e
H|---?---R---R---R---R---R---R---R---R---R---R---R---|
S|-----------X---------------X---------------X-------|
T|---------------------------------------------------|
F|---X---X---X---X---X---X---X---X---X---X---X---X---|

     e   e   e   e   e   e   e   e   e   e   e   e
H|---R---R---R---R---R---R---R---R---R---R---R---R---|
S|-----------X---------------X-------X-------X-------|
T|---------------------------------------------------|
F|---X---X---X---X---X---X---X---X---X---X---X---X---|

     e   e   e   e   e   e   e   e   e   e   e   e
H|---C---R---R---R---R---R---R---R---R---R---R---R---|
S|---X-------X-------X-------X-------X-------X-------|
T|---------------------------------------------------|
F|---X---X---X---X---X---X---X---X---X---X---X---X---|

     e   e   e   e   e   e   e   s s s s s s tttts s
H|---R---R---R---R---R---R---R-----------------------|
S|---X-------X-------X-------X---X-X-X-X-X-X-XXXXX-X-|
T|---------------------------------------------------|
F|---X---X---X---X---X---X---X---X---X---X---X---X---|

      e   e   e   e   e   e   e   e      e   s s e   e   e   e   e   e
H|----C-------R---R---R---R---R---R--|---R---R---R---C---R---R---R---R---|
S|4:----------X---------------X------|-----------X---------------X-------|
T|4:---------------------------------|-----------------------------------|
F|----X-------------------X-------X--|---X-----X-----X-------X-------X---|

     e   e   e   e   e   e   e   e       e   s s e   e   e   e   q
H|---R---R---R---R---R---R---R---R---|---R---R---R---R---R---R-----------|
S|-----------X---------------X-------|-----------X---------------F-------|
T|-----------------------------------|-----------------------------------|
F|---X-------------------X-------X---|---X-----X-----X-------X-----------|

     e   e   s s+e   e   e   e   e       e   e   e   e   e   e   e   e
H|-------C-----C-----C-------R---R---|---R---R---R---R---R---R---R---R---|
S|-----------X---------------X-------|-----------X---------------X-------|
T|-----------------------------------|-----------------------------------|
F|---P---X-----X-----X---------------|-------X-------X---X-----X-----X---|

     e   e   e   e   e   e   e   e       e   e   e   e   e   tttts s s s
H|---R---R---R---R---R---R---R---R---|---R---R---R---R---R---------------|
S|-----------X---------------X-------|-----------X-----------XXXXX-X-X-X-|
T|-----------------------------------|-----------------------------------|
F|---X-------------------X-------X---|---X-----X-----X---X---------------|

     e   e   s s+s s e+  e   e   e       e   e   e   e   e   e   e   e
H|-------C-----C-----C-------R---R---|---R---R---R---R---R---R---R---R---|
S|---X-------X-----X---------X-------|-----------X---------------X-------|
T|-----------------------------------|-----------------------------------|
F|-------X-----X-----X-----------X---|---X-------------------X-------X---|

     e   s s e   e   e   e   e   e       e   s s e   e   tttts s s s s s
H|---R---R---R---R---R---R---R---R---|---R---R---R---R-------------------|
S|-----------X---------------X-------|-----------X-------XXXXX-X---------|
T|-----------------------------------|---------------------------4-4-5-5-|
F|---X-----X-------------X-------X---|---X-----X-----X-------------------|

     s s e   s s+s s e   e   e   e       e   e   e   e   e   e   e   e
H|-------C-----C-----C-------R---R---|---R---R---R---R---R---R---R---R---|
S|-----------X-----X---------X-------|-----------X---------------X-------|
T|---6-6-----------------------------|-----------------------------------|
F|-------X-----X-----X-----------X---|---X-------------------X-------X---|

     e   e   e   e   e   e   e   e       e   e   e   s s s s s s q
H|---R---R---R---R---R---R---R---R---|---R---R---R---R---R---R-----------|
S|-----------X---------------X-------|-----------X---------------?-------|
T|-----------------------------------|-----------------------------------|
F|---X-----X-------------X-------X---|---X-----X-------X---X---X---------|

     e   e   e   s s s s s s e   e       e   e   e   s s s s s s e   e
H|---C---H---H---H---H---H---H---H---|---H---H---H---H---H---H---H---H---|
S|-----------X---------------X-------|-----------X---------------X-------|
T|-----------------------------------|-----------------------------------|
F|---X-------------X---X---X---------|---X---X---------X---X---X---------|

     e   e   e   s s s s s s e   e       e   e   e   s s s s s s e   e
H|---H---H---H---H---H---H---H---H---|---H---H---H---H---H---H---H---H---|
S|-----------X---------------X-------|-----------X---------------X-------|
T|-----------------------------------|-----------------------------------|
F|---X---X---------X---X---X---------|---X---X---------X---X---X---------|

     e   e   e   s s s s s s e   e       e   e   e   s tts tts s s s s s
H|---H---H---H---H---H---H---H---H---|---H---H-------------------------S-|
S|-----------X---------------X-------|-----------F-------------------X---|
T|-----------------------------------|-------------------X-111-1-2-2-----|
F|---X---X---------X---X---X---------|---X---X---------XX--------------X-|

                  6          5
     e   e   s^s^s^s^s^s s^s^s^s^s e   e
H|---r-------------------------------------|
S|---e---?-------X-X-----X-X-----X-X---I---|
T|---s-------5-6-----5-6-----5-6-----------|
F|---t-------------------------------------|

     e   e   e   e   e   e   e   e       e   e   e   s s s s e   e   e
H|---C-------X---X---X---X---X---X---|---X---X---X---X---X---X---X---O---|
S|-----------X---------------X-------|-----------X---------------X-------|
T|-----------------------------------|-----------------------------------|
F|---X---------------------------X---|---X-----------X-X---X-X-----------|

     e   e   e   e   e   e   e   e       e   e   e   s s s s e   e   e
H|---X---X---X---X---X---X---X---X---|---X---X---X---X---X---X---X---O---|
S|-----------X---------------X-------|-----------X---------------X-------|
T|-----------------------------------|-----------------------------------|
F|---X---------------------------X---|---X-----------X-X---X-X-----------|

     e   e   e   e   e   e   e   e       e+  e   e   s s s s e   e   e
H|---X---O---X---X---X---X---X---X---|---?-------X---X---X---X---X---O---|
S|-----------X---------------X-------|-----------X---------------X-------|
T|-----------------------------------|-----------------------------------|
F|---X---------------------------X---|---X-----------X-X---X-X-----------|

     e   e   e   e   e   e   e   e       e   e   e   s s s s e   e   e
H|---X---X---X---X---X---X---X---X---|---X---X---X---X---X---X---X---O---|
S|-----------X---------------X-------|-----------X---------------X-------|
T|-----------------------------------|-----------------------------------|
F|---X---------------------------X---|---X-----------X-X---X-X-----------|

     e   e   e   e   e   e   e   e       e   e   e   s s s s e   e   e
H|---X---O---X---X---X---X---X---X---|-------X---X---X---X---X---X---O---|
S|-----------X---------------X-------|---I-------X---------------X-------|
T|-----------------------------------|-----------------------------------|
F|---X---------------------------X---|---X-----------X-X---X-X-----------|

     e   e   e   e   e   e   e   s s     e   s s e   s s e   s s e   e
H|---X---X---X---X---X---X---X---X---|---X---H---H---H---H---H---H---X---|
S|-----------X---------------X-------|-----------X---------------X-------|
T|-----------------------------------|-----------------------------------|
F|---X-----------------------------X-|---------X-------X-------X-----X---|

     e   e   e   e   e   e   e   e       e   e   e   s s s s e   e   e
H|---X---X---X---X---X---X---X---X---|---X---X---X---X---X---X---X---O---|
S|-----------X---------------X-------|-----------X---------------X-------|
T|-----------------------------------|-----------------------------------|
F|---X---------------------------X---|---X-----------X-X---X-X-----------|

     e   e   e   e   e   e   e   e       e   e   e   s s s s e   e   e
H|---X---O---X---O---X---X---X---X---|---X---X---X---X---X---X---X---O---|
S|-----------X---------------X-------|-----------X---------------X-------|
T|-----------------------------------|-----------------------------------|
F|---X---------------------------X---|---X-----------X-X---X-X-----------|

     e   e   e   e   e   e   e   e       e   e   e   s s s s e   e   e
H|---X---X---X---X---X---X---X---X---|---?---X---X---X---X---X---X---O---|
S|-----------X---------------X-------|-----------X---------------X-------|
T|-----------------------------------|-----------------------------------|
F|---X---------------------------X---|---X-----------X-X---X-X-----------|

     e   e   e   s s e   s s e   s s     e   s s e   s s e   e   e   e
H|---X---O-------H---H---H---H---H---|---H---H---H---H---H---H-----------|
S|-----------X---------------X-------|-----------X---------------F---F---|
T|-----------------------------------|-----------------------------------|
F|---X-------P-----X-------X-------X-|---------X-------X-----X-----------|

     w
H|---C-------------------------------|
S|-----------------------------------|
T|-----------------------------------|
F|---X-------------------------------|


KEY:

 Hi-hats & Cymbals  -O-X-H--C-R-B-S-T-c-
             Snare  -X-S-R-F------------
               Tom  -1-2-3-4-5-6-7-X----
       Foot Pedals  -X-P----------------


Hi-hats & Cymbal line:

Hi-hats  O - OPEN HH
         X - CLOSED HH
         P - PEDAL HH
         H - HALF OPEN HH
Cymbals  C - CRASH
         c - CRASH CHOKE
         R - RIDE
         B - RIDE BELL
         S - SPLASH
         T - CHINA (AKA TRASH)

Snare line:
     X - SINGLE HIT
     R - RIMSHOT
     F - FLAM (Hit with both sticks, one slightly before the other)
     S - SIDE STICK
     x - GRACE NOTE (hit snare slightly and right before the prime note)

Tom line:
        Notated by number. 1 being the highest sounding to the lowest tom.
        (The numbers depend on how many toms Neil is using in any given song,
        it's up to you to fit them into your drumset.)
        X - Floor tom
 NOTE - A second tom line will be added to the bar ONLY if two toms are
        played at once.
 Foot Pedal line:
        X - KICK DRUM
        P - Hi-hat pedal
        When the right and left kick drums are being used together they will
        be notated with a right (R) or a left (L)

Rhythm:
w whole note                    W dotted whole note
h half note                     H dotted half note
q quarter note                  Q dotted quarter note
e eighth note                   E dotted eighth note
s sixteenth note                S dotted sixteenth note
t thirty-second note            T dotted thirty-second note

% - Repeat last measure

Fermata - Hold the note at pleasure

> - Accent: When a note is given special emphasis

||----||
||:--:||  Repeat
||:--:||  Signs
||----||

As a general rule, the rhythm shown above the staff will be the composite
rhythm for all the drums, as this is the only way to notate this, short
of assigning each line on the staff it's own rhythm :P.
Tap to rate this tab
 
# A B C D E F G H I J K L M N O P Q R S T U V W X Y Z