Song name
# A B C D E F G H I J K L M N O P Q R S T U V W X Y Z

Rush - Red Sector A drum

NOT MY TAB. I just thought it would be good to have these here on UG. Credit goes to those below.



Rush: Red Sector A
From the album Grace Under Pressure (Mercury Records)
Copyright 1984 Core Music Publishing
Music by Lee and Lifeson
Lyrics by Peart

Comments/corrections to Bryan McDonald 

Transcribed by Bill Wheeler and Bryan McDonald

Note: There's a bar in this tab that needed a separate rythm notation for
bass drum and floor tom. So what I did is write the floor tom above the bar
(as normal), and write the bass drum rythm below.


q = 120

     q       s s s s s s s s s s s s     s s s s s s s s s s s s s s s s
H|---C-------X-X-X-X-X-X-X-X-X-X-X-X-|---X-X-X-X-X-X-X-X-X-X-X-X-X-X-O-O-|
S|-----------------------------------|-----------------------------------|
T|-----------------------------------|-----------------------------------|
F|---X-------X-------X-------X-------|---X-------X-------X-------X-------|

     s s s s s s s s s s s s s s s s     s s s s s s s s s s s s s s s s
H|---X-X-X-X-X-X-X-X-X-X-X-X-X-X-X-X-|---X-X-X-X-X-X-X-X-X-X-O-O-X-X-O-O-|
S|-----------------------------------|-----------------------------------|
T|-----------------------------------|-----------------------------------|
F|---X-------X-------X-------X-------|---X-------X-------X-------X-------|

     s s s s s s s s s s s s s s s s     s s s s s s s s s s s s s s s s
H|---X-X-X-X-X-X-X-X-X-X-X-X-X-X-X-X-|---X-X-X-X-X-X-X-X-X-X-O-O-X-X-X-X-|
S|-----------------------------------|-----------------------------------|
T|-----------------------------------|-----------------------------------|
F|---X-------X-------X-------X-------|---X-------X-------X-------X-------|

     s s s s s s s s s s s s s s s s     s s s s s s s s s s s s s s s s
H|---X-X-X-X-X-X-X-X-X-X-X-X-X-X-X-X-|---X-X-X-X-X-X-X-X-X-X-O-O-X-X-O-O-|
S|-----------------------------------|-----------------------------------|
T|-----------------------------------|-----------------------------------|
F|---X-------X-------X-------X-------|---X-------X-------X-------X-------|

     s s s s s s s s s s s s s s s s     s s s s s s s s s s s s s s s s
H|---X-X-X-X-X-X-X-X-X-X-O-O-X-X-X-X-|---X-X-X-X-X-X-X-X-X-X-O-O-X-X-O-O-|
S|-----------------------------------|-----------------------------------|
T|-----------------------------------|-----------------------------------|
F|---X-------X-------X-------X-------|---X-------X-------X-------X-------|

      s s s s s s s s s s s s s s s s     s s s s s s s s s s s s s s s s
H||---X-X-X-X-X-X-X-X-X-X-X-X-X-X-O-O-|---X-X-X-X-X-X-X-X-X-X-O-O-X-X-O-O-|
S||:----------------------------------|-----------------------------------|
T||:----------------------------------|-----------------------------------|
F||---X-------X-------X-------X-------|---X-------X-------X-------X-------|

     s s s s s s s s s s s s s s s s     s s s s s s s s s s s s s s s s
H|---X-X-X-X-X-X-X-X-X-X-O-O-X-X-X-X-|---X-X-X-X-X-X-X-X-X-X-O-O-X-X-O-O--||
S|-----------------------------------|-----------------------------------:||
T|-----------------------------------|-----------------------------------:||
F|---X-------X-------X-------X-------|---X-------X-------X-------X--------||

      s s s s s s s s s s s s s s s s     s s s s s s s s s s s s s s s s
H||---X-X-X-X-X-X-X-X-X-X-X-X-X-X-X-X-|---X-X-X-X-X-X-X-X-X-X-X-X-X-X-O-O-|
S||:----------------------------------|-----------------------------------|
T||:----------------------------------|-----------------------------------|
F||---X-------X-------X-------X-------|---X-------X-------X-------X-------|

     s s s s s s s s s s s s s s s s     s s s s s s s s s s s s s s s s
H|---X-X-X-X-X-X-X-X-X-X-X-X-X-X-X-X-|---X-X-X-X-X-X-X-X-X-X-O-O-X-X-O-O-|
S|-----------------------------------|-----------------------------------|
T|-----------------------------------|-----------------------------------|
F|---X-------X-------X-------X-------|---X-------X-------X-------X-------|
                                     ___________________________________
				     | 1.
     s s s s s s s s s s s s s s s s |   s s s s s s s s s s s s s s s s
H|---X-X-X-X-X-X-X-X-X-X-O-O-X-X-X-X-|---X-X-X-X-X-X-X-X-X-X-O-O-X-X-O-O--||
S|-----------------------------------|-----------------------------------:||
T|-----------------------------------|-----------------------------------:||
F|---X-------X-------X-------X-------|---X-------X-------X-------X--------||

 __________________________________
 | 2.                                                  >   > >       >
 |   s s s s s s s s s s s s s s s s     q       s s s s s s s s s s s s
H|---X-X-X-X-X-X-O-O-X-X-O-O-X-X-O-O-|---C---------X-X-X-X-X-X-X---X-X-X-|
S|-----------------------------------|-----------------------------------|
T|-----------------------------------|-----------6---------------6-------|
F|---X-------X-------X-------X-------|---X-------X-------X-------X-------|

           >       >   > > >                           >   > >       >
     s s s s s s s s s s s s s s s s     s s s s s s s s s s s s s s s s
H|---X-X-X-X---X-X-X-X-X-X-X---X-O-O-|---X-X-X-X---X-X-X-X-X-X-X---X-X-X-|
S|-----------------------------------|-----------------------------------|
T|-----------6---------------6-------|-----------6---------------6-------|
F|---X-------X-------X-------X-------|---X-------X-------X-------X-------|

         >         >   > > >                            >   > >       >
     s s s s s s s s s s s s s s s s      s s s s s s s s s s s s s s s s
H|---X-X-X-X---X-X-X-X-X-X-X---X-O-O-||---X-X-X-X---X-X-X-X-X-X-X---X-X-X-|
S|-----------------------------------||:----------------------------------|
T|-----------6---------------6-------||:----------6---------------6-------|
F|---X-------X-------X-------X-------||---X-------X-------X-------X-------|

         >         >   > > >
     s s s s s s s s s s s s s s s s       s s s s s s s s s s s s e   e
H|---X-X-X-X---X-X-X-X-X-X-X---X-O-O--||---X-X-X-X---X-X-X-X-X-X-X---------|
S|-----------------------------------:||-----------------------------------|
T|-----------6---------------6-------:||-----------6---------------6---6---|
F|---X-------X-------X-------X--------||---X-------X-------X-------X-------|
                                      ____________________________________
                    >   > >       >   | 1.    >         >   > > >
      q       s s s s s s s s s s s s |   s s s s s s s s s s s s E    tt
H||---C---------X-X-X-X-X-X-X---X-X-X-|---X-X-X-X---X-X-X-X-X-X-X----------|
S||:----------------------------------|------------------------------------|
T||:----------6---------------6-------|-----------6---------------6----66--|
F||---X-------X-------X-------X-------|---X-------X-------X-------X--------|
 __________________________________    ____________________________________
                                       | 2.                  3
     s s s s s s s s s s s s e   s s   |   s s s s s s s s s^s^s s s s s
s s
H|---X-X-X-X---X-X-X-X-X-X-X----------||---X-X-X-X---X-X-X-------------------|
S|-----------------------------------:||-------------------------------------|
T|-----------6---------------6---6-6-:||-----------6-------5-5-5-5-5---6-7-7-|
F|---X-------X-------X-------X--------||---X-------X-------X---------X-------|

      q       e   s s s s e   e   s s     s s e   e   s s s s e   e   s s
H||---C-----------R-R---R-R---T---R-R-|-----R-R-------R-R---R-R---T---R-R-|
S||:----------X---------------X-------|-----------X---------------X-------|
T||:----------------------------------|-----------------------------------|
F||---X-------X-------X-------X-------|---X-------X-------X-------X-------|

                                     ____________________________________
                                     | 1.
     s s e   e   s s s s e   e   s s |   s s e   e   s s s s e   e   s s
H|-----R-R-------R-R---R-R---T---R-R-|-----R-R-------R-R---R-R---T--------||
S|-----------X---------------X-------|-----------X---------------X-------:||
T|-----------------------------------|-------------------------------6-6-:||
F|---X-------X-------X-------X-------|---X-------X-------X-------X--------||
 __________________________________
 | 2.
 |   s s e   e   e   e   s s s s s s     q       s s s s s s s s s s s s
H|-----R-R-------R---T---------------|---C---------X-X-X-X-X-X-X---X-X-X-|
S|-----------X-------X---------------|-----------X---------------X-------|
T|-----------------------5-5-6-6-7-7-|-----------------------------------|
F|---X-------X-------X-------X-------|---X-------X-------X-------X-------|

     s s s s s s s s s s s s s s s s     s s s s s s s s s s s s s s s s
H|---X-X-X-X---X-X-X-X-X-O-O---X-O-O-|---X-X-X-X---X-X-X-X-X-O-O---X-X-X-|
S|-----------X---------------X-------|-----------X---------------X-------|
T|-----------------------------------|-----------------------------------|
F|---X-------X-------X-------X-------|---X-------X-------X-------X-------|

     s s s s s s s s s s s s s s s s     s s s s s s s s s s s s s s s s
H|---X-X-X-X---X-X-X-X-X-O-O-X-X-O-O-|---X-X-X-X---X-X-X-X-X-O-O---X-X-X-|
S|-----------X-----------------------|-----------X---------------X-------|
T|-----------------------------------|-----------------------------------|
F|---X-------X-------X-------X-------|---X-------X-------X-------X-------|

     s s s s s s s s s s s s s s s s     s s s s s s s s s s s s s s s s
H|---X-X-X-X---X-X-X-X-X-O-O---X-O-O-|---X-X-X-X---X-X-X-X-X-O-O---X-X-X-|
S|-----------X---------------X-------|-----------X---------------X-------|
T|-----------------------------------|-----------------------------------|
F|---X-------X-------X-------X-------|---X-------X-------X-------X-------|

     s s s s s s s s s s s s e   s s     q       s s s s s s s s s s s s
H|---X-X-X-X---X-X-X-X-X-X-X---------|---C---------X-X-X-X-X-X-X---X-X-X-|
S|-----------X---------------X---X-X-|-----------X---------------X-------|
T|-----------------------------------|-----------------------------------|
F|---X-------X-------X-------X-------|---X-------X-------X-------X-------|

     s s s s s s s s s s s s E    tt     q       s s s s s s s s s s s s
H|---X-X-X-X---X-X-X-X-X-X-X---------|---C---------X-X-X-X-X-------------|
S|-----------X---------------X-------|-----------X-----------X-X---X-X-X-|
T|--------------------------------66-|-----------------------------------|
F|---X-------X-------X-------X-------|---X-------X-------X-------X-------|

                                                              6
     q       s s s s s s s s s s s s     s s s s s s s s s^s^s^s^s^s s s s s
H|---C---------X-X-X-X-X-X-X---X-X-X-|---X-X-X-X---X-X-X---------------------|
S|-----------X---------------X-------|-----------X-------5-5-5-5-5-5---------|
T|-----------------------------------|---------------------------------6-7-7-|
F|---X-------X-------X-------X-------|---X-------X-------X-----------X-------|

      q       e   s s s s e   e   s s     s s e   e   s s s s e   e   s s
H||---C-----------R-R---R-R---T---R-R-|-----R-R-------R-R---R-R---T---R-R-|
S||:----------X---------------X-------|-----------X---------------X-------|
T||:----------------------------------|-----------------------------------|
F||---X-------X-------X-------X-------|---X-------X-------X-------X-------|
 ____________________________________
 | 1.
 |    s s e   e   s s s s e   e   s s     s s e   e   s s s s e   e   s s
H||-----R-R-------R-R---R-R---T---R-R-|-----R-R----------------------------||
S||:----------X---------------X-------|-----------X---X-X---X-X---X-------:||
T||:----------------------------------|-------------------------------6-6-:||
F||---X-------X-------X-------X-------|---X-------X-------X-------X--------||
 ____________________________________
 | 2.
 |   s s e   e   s s s s e   e   s s       e   e   e   e
H|-----R-R----------------------------|--------C---C---C---|
S|-----------X---X-X---X-X---X--------|2:-xX---------------|
T|-------------------------------6-6--|4:------------------|
F|---X-------X-------X-------X--------|--------X---X---X---|

     s s s s s s s s s s s s s s s s     s s s s s s s s s s s s s s s s
H|---C-X-X-X---X-X-X-X-X-X-X---X-X-X-|---X-X-X-X---X-X-X-X-X-O-O---X-T-X-|
S|-----------X---------------X-------|-----------X---------------X-------|
T|-----------------------------------|-----------------------------------|
F|---X-------X-------X-------X-------|---X-------X-------X-------X-------|

     s s s s s s s s s s s s s s s s      s s s s s s s s s s s s s s s s
H||---X-X-X-X---X-X-X-X-X-X-X---X-X-X-|---X-X-X-X---X-X-X-X-X-O-O---X-T-X--||
S||:----------X---------------X-------|-----------X---------------X-------:||
T||:----------------------------------|-----------------------------------:||
F||---X-------X-------X-------X-------|---X-------X-------X-------X--------||

     s s s s s s s s s s s s s s s s     s s s s s s s s s s s s s s s s
H|---X-X-X-X---X-X-X-X-X-O-O---X-X-X-|---X-X-X-X---X-X-X-X-X-O-O---X-T-X-|
S|-----------X---------------X-------|-----------X---------------X-------|
T|-----------------------------------|-----------------------------------|
F|---X-------X-------X-------X-------|---X-------X-------X-------X-------|

      s s s s s s s s s s s s s s s s     s s s s s s s s s s s s s s s s
H||---X-X-X-X---X-X-X-X-X-X-X---X-X-X-|---X-X-X-X---X-X-X-X-X-O-O---X-T-X--||
S||:----------X---------------X-------|-----------X---------------X-------:||
T||:----------------------------------|-----------------------------------:||
F||---X-------X-------X-------X-------|---X-------X-------X-------X--------||

     s s s s s s s s s s s s s s s s     s s s s s s s s s s s s e   e
H|---X-X-X-X---X-X-X-X-X-O-O---X-X-X-|---X-X-X-X---X-X-X-X-X-X-X---------|
S|-----------X---------------X-------|-----------X---------------X---X---|
T|-----------------------------------|-----------------------------------|
F|---X-------X-------X-------X-------|---X-------X-------X-------X-------|

                             Wind Chimes - - - - - - - - - - - - - - - -
     q       q       q       q           q       q       q       e   e
H|---C-------------------------------|-----------------------------------|
S|-----------------------------------|--------------------------xX--xX---|
T|----------xX--------------xX-------|--xX-------------------------------|
F|---X---------------X---------------|-----------P-------X---------------|

- - - -                 3        3
     q       q       e^^e^^e  e^^e^^e     q       q       e^^e^^e  e^^e^^e
H|----------------------r-------------|-------------------T--T--T--T--T--T-|
S|----------------------e-------------|------------------------------------|
T|----------------------s--1--1--1--1-|---1--------------------------------|
F|---X-------P-------X--t-------------|---X-------P-------X--------P-------|

                                       (Separate rythms)
     q       q       q       e   e       q       q       q^^^^q^^^^q
H|---C-------r-----------------------|-----------------------------------|
S|-----------e--------------xX--xX---|-----------------------------------|
T|-----------s-----------------------|------------------xX---xX---xX-----|
F|---X-------t-------X-------P-------|---X-------P-------X-------P-------|
                                                         q       q


     q+      q       q       e   e       q       e   s s s s s s s s s s
H|---C-------------------------------|-----------------------------------|
S|--------------------------xX--xX---|-----------------------------------|
T|-----------------------------------|---------------X-X-X-X-X-X-X-X-X-X-|
F|---X-------P-------X-------P-------|---X-------X-------X-------X-------|

     q+      q       e   e   s E         E     s e   e   q       e   e
H|---C-------------------------X-----|---------------X-------------------|
S|-----------------------------------|---------------X-------------------|
T|-----------------------X-----------|---------X---------------------6---|
F|---X-------X-------X-------X-------|---X-------X-------X-------X-------|

     E     s e   e   e   e   s^s^s e       E     s e   e   e   e   e   e
H|-------------------X-----------------|-----------------------------------|
S|-----------------------X-------------|-------------------X---X-----------|
T|---------5-----X-----------5-5-5-5---|---------X-----X--------------x6---|
F|---X-------X-------X-------X---------|---X-------X-------X-------X-------|

T = Timbale

     E     s e   e   e   e   s s e       E     s e   e   e   e   s E
H|---------X---------X-------X-X-r---|-------------------X---------------|
S|-----------------------T-------e---|-----------------------T-----------|
T|--------------xX---------------s---|--------xX----xX----------xXxX-----|
F|---X-------X-------X-------X---t---|---X-------X-------X-------X-------|

                               3
     E     s e   e   e   e   s^s^s e       E     s e   e   e   e   e   e
H|---------X---------X-----------------|---------------X-------------------|
S|---------------T---------------------|-----------------------------------|
T|-----------------------1---5-5-5-5---|---------6-----6--xX--x6--x6--x6---|
F|---X-------X-------X-------X---------|---X-------X-------X-------X-------|

     E     s e   e   q       e   e        q       e   e   q       e   e
H|---C-------------------------------||------------------------------------|
S|------------------xX---------------||:------------------xX---------------|
T|---------X-----6----------x5--x5---||:----------xX--xX----------x5--x5---|
F|---X-------X-------X-------X-------||---X-------X-------X-------X--------|

     E     s e   e   q       e   e        q       e   e   q       e   e
H|-----------------------------------||-----------------------------------|
S|------------------xX--------------:||------------------xX---------------|
T|---------X-----X----------x5--x5--:||----------xX--xX----------x5--x5---|
F|---X-------X-------X-------X-------||---X-------X-------X-------X-------|

     q       e   e   e   e   e   e       e   e   e   e   s s s s s s s s
H|---C-------------------------------|-----------------------------------|
S|-----------------------------------|-----------------------------------|
T|----------x5--------------x1-------|----------x5-------X-X-X-X-X-X-X-X-|
F|---X-------X---P---X---P---X---P---|---X---P---X---P---X---P---X---P---|

     e   e   e   e   e   e   e   e       e   e   e   e   e   e   e   e
H|---C-------------------------------|-----------------------------------|-----|
S|---------------------------X-------|---------------------------X---X---|--%--|
T|----------x6---------------7-------|----------x6---------------7---7---|-----|
F|---X---P---X---P---X---P---X---P---|---X---P---X---P---X---P---X---P---|-----|

       3         3				  6
     s^s^s s s s^s^s s s s s s s^s^s^s^s^s
H|-----------------------------------------|
S|-----------------------------------------|
T|---5-5-5-5-5-5-5-5-5-4-4-5-5-6-6-6-6-7-7-|
F|---X---------X-------X-------X-----------|

      q       e   s s s s e   e   s s     e s e   e   s s s s e   e   s s
H||---C-----------R-R---R-R---T---R-R-|-----R-R-------R-R---R-R---T---R-R-|
S||:----------X---------------X-------|-----------X---------------X-------|
T||:----------------------------------|-----------------------------------|
F||---X-------X-------X-------X-------|---X-------X-------X-------X-------|
 _________________________________________________________________________
 | 1.
 |   s s s s s s s s s s e   e   s s     s s e   e   s s s s e   e   s s
H|---R-R-R-R---R-R-R---R-R---T---R-R-|-----R-R-------------------T--------||
S|-----------X---------------X-------|-----------X---X-X---X-X---X---X-X-:||
T|-----------------------------------|-----------------------------------:||
F|---X-------X-------X-------X-------|---X-------X-------X-------X--------||
 __________________________________________
 | 2.
 |   s s e   e   s s s s e   e   e       e   e   e   e   q       q
H|-----R-R-------R-R---R-R-----------|-------C---C---C---c-------c-------|
S|-----------X---------------X---X---|--xX-------------------------------|
T|-----------------------------------|-----------------------------------|
F|---X-------X-------X-------X-------|-------X---X---X---X-------X-------|

     s s s s s s s s s s s s s s s s     s s s s s s s s s s s s s s s s
H|---X-X-X-X---X-X-X-X-X-X-X---X-X-X-|---X-X-X-X---X-X-X-X-X-O-O---X-T-X-|
S|-----------X---------------X-------|-----------X---------------X-------|
T|-----------------------------------|-----------------------------------|
F|---X-------X-------X-------X-------|---X-------X-------X-------X-------|

      s s s s s s s s s s s s s s s s     s s s s s s s s s s s s s s s s
H||---X-X-X-X---X-X-X-X-X-X-X---X-X-X-|---X-X-X-X---X-X-X-X-X-O-O---X-T-X--||
S||:----------X---------------X-------|-----------X---------------X-------:||
T||:----------------------------------|-----------------------------------:||
F||---X-------X-------X-------X-------|---X-------X-------X-------X--------||

     s s s s s s s s s s s s s s s s     s s s s s s s s s s s s s s s s
H|---X-X-X-X---X-X-X-X-X-O-O---X-X-X-|---X-X-X-X---X-X-X-X-X-O-O---X-T-X-|
S|-----------X---------------X-------|-----------X---------------X-------|
T|-----------------------------------|-----------------------------------|
F|---X-------X-------X-------X-------|---X-------X-------X-------X-------|

     s s s s s s s s s s s s s s s s     s s s s s s s s s s s s s s s s
H|---X-X-X-X---X-X-X-X-X-X-X---X-X-X-|---X-X-X-X---X-X-X-X-X-O-O---X-T-X-|
S|-----------X---------------X-------|-----------X---------------X-------|
T|-----------------------------------|-----------------------------------|
F|---X-------X-------X-------X-------|---X-------X-------X-------X-------|

     s s s s s s s s s s s s s s s s     s s s s s s e+  e   e   e   e
H|---X-X-X-X---X-X-X-X-X-X-X---X-X-X-|---X-X-X-X---X-H-------T---T---T---|
S|-----------X---------------X-------|-----------X-------X---------------|
T|-----------------------------------|-----------------------------------|
F|---X-------X-------X-------X-------|---X---------X-X---X---X---X---X---|

     q+      q       e   e   s s e       q       e   e   s E     e   e
H|---T-------------------------X-r---|-----------------------------------|
S|-----------------------T-------e---|---------------T-------------------|
T|-------------------------------s---|---X-----------------X---------X---|
F|---X-------X-------X-------X---t---|---X-------X-------X-------X-------|

                                                                      3
     E     s e   e   e   e   s^s^s e       E     s e   e   q       e^^e^^e
H|---------X---------X-----------------|------------------------------------|
S|-----------------------T-------------|------------------------------------|
T|---------------X-----------1-1-1-1---|---------X-----X-----------6--6--6--|
F|---X-------X-------X-------X---------|---X-------X-------X-------X--------|

     E     s e   e   e   e   e   e       E     s e   e   e   e   e   e
H|-------------------X---------------|---------X---------X---------------|
S|---------------T-------T-----------|-----------------------T-----------|
T|---6-----X---------------------6---|---------------X-----------6---6---|
F|---X-------X-------X-------X-------|---X-------X-------X-------X-------|

                                                                    3
     E     s e   e   e   e   e   e       E     s e   e   e   e   e^^e^^e
H|---C-------------------------------|---------------X---X-------X--X--X--|
S|---------T-----T-------T-----------|----------------------xT------------|
T|-------------------------------X---|---------X-----X---X----------------|
F|---X-------X-------X-------X-------|---X-------X-------X-------X--X--X--|

     q+      q       h
H|---T---------------r---------------|
S|-------------------e---------------|
T|-------------------s---------------|
F|---X---------------t---------------|


KEY:

 Hi-hats & Cymbals  -O-X-H--C-R-B-S-T-c-
             Snare  -X-S-R-F------------
               Tom  -1-2-3-4-5-6-7-X----
       Foot Pedals  -X-P----------------


Hi-hats & Cymbal line:

Hi-hats  O - OPEN HH
         X - CLOSED HH
         P - PEDAL HH
         H - HALF OPEN HH
Cymbals  C - CRASH
         c - CRASH CHOKE
         R - RIDE
         B - RIDE BELL
         S - SPLASH
         T - CHINA (AKA TRASH)

Snare line:
     X - SINGLE HIT
     R - RIMSHOT
     F - FLAM (Hit with both sticks, one slightly before the other)
     S - SIDE STICK
     x - GRACE NOTE (hit snare slightly and right before the prime note)

Tom line:
        Notated by number. 1 being the highest sounding to the lowest tom.
        (The numbers depend on how many toms Neil is using in any given
        song, it's up to you to fit them into your drumset.)
        X - Floor tom
 NOTE - Originally this key had two tom lines, but I decided to use
        just one too keep it simpler.
        A second tom line will be added to the bar ONLY if two toms are
        played at once.

 Foot Pedal line:
        X - KICK DRUM
        P - Hi-hat pedal
        When the right and left kick drums are being used together they
will
        be notated with a right (R) or a left (L)

Rhythm:
w whole note                    W dotted whole note
h half note                     H dotted half note
q quarter note                  Q dotted quarter note
e eighth note                   E dotted eighth note
s sixteenth note                S dotted sixteenth note
t thirty-second note            T dotted thirty-second note

% - Repeat last measure

Fermata - Hold the note at pleasure

> - Accent: When a note is given special emphasis

||----||
||o--o||  Repeat
||o--o||  Signs
||----||

As a general rule, the rhythm shown above the staff will be the composite
rhythm for all the drums, as this is the only way to notate this, short
of assigning each line on the staff it's own rhythm :P.
Tap to rate this tab
 
# A B C D E F G H I J K L M N O P Q R S T U V W X Y Z