Song name
# A B C D E F G H I J K L M N O P Q R S T U V W X Y Z

Rush - Caravan tab

#----------------------------------PLEASE NOTE---------------------------------#
#This file is the author's own work and represents their interpretation of the #
#song. You may only use this file for private study, scholarship, or research. #
#------------------------------------------------------------------------------#

                                     CARAVAN
                               As recorded by Rush
                (From the 2011 Album CLOCKWORK ANGELS (ATLANTIC))

Words and Music by Lee, Lifeson, & Peart
Arranged by Rush & Nick Raskulinecz
Transcribed by R. Soto 
Version 1.0   07-03-10
---

The free Power Tab Editor v1.7 Tablature Software is available at
The Official Power Tab Home Website at
http://www.power-tab.net/

As always, this tab (and possible future corrections/updates of this tab)
in ASCII text (.txt/.tab) was originally and exclusively distributed for free
on The Rush-tabs mailing list at Yahoo Groups at
http://launch.groups.yahoo.com/group/rush-tabs/

AND free web-based archival/updated distribution on
The Rush Tablature Project Website at:
http://www.cygnusproductions.com/rtp/

If you actually paid ANY amount of money for this ASCII text tab file
&/or it's Power Tab companion instead of obtaining it for free at the above
mentioned websites, you have gotten ripped off my friend!

---
          Bb5                  A5                   C5                   G#5
      6 8 x x x x          5 7 x x x x         8 10 x x x x          4 6 x x x x

          F5                    A
      1 3 x x x x          5 7 7 6 5 5

Gtr I (E A D G B E) - 'Bizarre Metallic Scratchy Flanginess'
Gtr II (E A D G B E) - 'Main Overdriven Electric Guitar'
Gtr III (E A D G B E) - 'Clean-Chorused Arpeggiated Guitar'
Gtr IV (E A D G B E) - 'Solo'

 Intro
  Q=128
  N.C.                        E5    Eb5   D5
 4/4
  Gtr I
  W           Wx12             E  E  E  E  E  E Q
|----------||-------------||-----------------------|
|----------||-------------||o-17-17-16-16-15-15----|
|----------||-------------||--16-16-15-15-14-14----|
|----------||-------------||--14-14-13-13-12-12----|
|----------||-------------||o----------------------|
|----------||-------------||-----------------------|


 1.                       2.
  B5    Bb5   A5 E5        B5    Bb5   A5 E5   E
                                               Gtr II
   E  E  E  E  E  E Q       E  E  E  E  E  E E E
|-----------------------||------------------------||
|----------------------o||------------------------||
|-16-16-15-15-14--------||-16-16-15-15-14---------||
|-16-16-15-15-14-14-----||-16-16-15-15-14-14------||
|-14-14-13-13-12-14----o||-14-14-13-13-12-14------||
|----------------12-----||----------------12---0--||


  E    E5  Eb5 D5       B5  Bb5 A5E5
  +Q   E E E E E E   Q  E E E E E E
|------------------|----------------||
|------------------|----------------||
|------9-9-8-8-7-7-|----------------||
|------9-9-8-8-7-7-|----9-9-8-8-7---||
|------7-7-6-6-5-5-|----9-9-8-8-7---||
|-(0)--------------|----7-7-6-6-5-0-||


    E5       Eb5 D5       B5  Bb5 A5E5             Eb5 D5      N.C.
    +Q   E E E E E E   Q  E E E E E E     +Q   E E E E E E   E E E E E E E E
||-------------------|-----------------||------------------|------------------|
||o------------------|----------------o||------------------|------------------|
||-------9-9-8-8-7-7-|-----------------||------9-9-8-8-7-7-|------------------|
||-------9-9-8-8-7-7-|----9-9-8-8-7----||------9-9-8-8-7-7-|---------1-0------|
||o------7-7-6-6-5-5-|----9-9-8-8-7---o||------7-7-6-6-5-5-|------------------|
||--(0)--------------|----7-7-6-6-5-0--||-(0)--------------|---0-2-3-----3-0--|


 Verse
  E    E5  Eb5 D5       B5  Bb5 A5E5             Eb5 D5       B5  Bb5 A5E5
  +Q   E E E E E E   Q  E E E E E E     +Q   E E E E E E   Q  E E E E E E
|------------------|----------------||-------------------|-----------------||
|------------------|----------------||o------------------|----------------o||
|------9-9-8-8-7-7-|----------------||-------9-9-8-8-7-7-|-----------------||
|------9-9-8-8-7-7-|----9-9-8-8-7---||-------9-9-8-8-7-7-|----9-9-8-8-7----||
|------7-7-6-6-5-5-|----9-9-8-8-7---||o------7-7-6-6-5-5-|----9-9-8-8-7---o||
|-(0)--------------|----7-7-6-6-5-0-||--(0)--------------|----7-7-6-6-5-0--||


  E5       Eb5 D5    N.C.              E    EsusEbsuDsus2
  +Q   E E E E E E   E E E E E E E E   +Q   E E E E E E
|------------------|-----------------|------7-7-6-6-5-5-|
|------------------|-----------------|------7-7-6-6-5-5-|
|------9-9-8-8-7-7-|-----------------|------9-9-8-8-7-7-|
|------9-9-8-8-7-7-|---------1-0-----|------9-9-8-8-7-7-|
|------7-7-6-6-5-5-|-----------------|------7-7-6-6-5-5-|
|-(0)--------------|---0-2-3-----3-0-|-(0)--------------|


 Pre-Chorus
  N.C.    Bb5     N.C.    BbB5C5  N.C.    Fsus4/Bb
          |-3-|           |-3-|
  E E E E Q Q Q   E E E E Q Q Q   E E E E E E E E
|---------------|---------------|---------1-1-1-1-|
|---------------|---------------|---------1-1-1-1-|
|---------3-3-3-|---------3-4-5-|---------3-3-3-3-|
|---------3-3-3-|---------3-4-5-|---------3-3-3-3-|
|---------1-1-1-|---------1-2-3-|---------1-1-1-1-|
|---0-2-3-------|-0-0-2-3-------|-0-0-2-3---------|


  E       Bb5B5 C5  C#5D5 EbFsus4/Bb
  E E E E E. E. E   E. E. E E E E E
|-----------------|---------1-1-1-1-|
|-----------------|---------1-1-1-1-|
|---------3--4--5-|-6--7--8-3-3-3-3-|
|---------3--4--5-|-6--7--8-3-3-3-3-|
|---------1--2--3-|-4--5--6-1-1-1-1-|
|-0-0-2-3---------|-----------------|


  E       BbB5C5  E       Fsus4/Bb
          |-3-|
  E E E E Q Q Q   E E E E E E E E
|---------------|---------1-1-1-1-|
|---------------|---------1-1-1-1-|
|---------3-4-5-|---------3-3-3-3-|
|---------3-4-5-|---------3-3-3-3-|
|---------1-2-3-|---------1-1-1-1-|
|-0-0-2-3-------|-0-0-2-3---------|


  E       Bb5B5 C5  C#5D5 EbBb
  E E E E E. E. E   E. E. E E E E E
|-----------------|---------6-6-6-6-|
|-----------------|---------6-6-6-6-|
|---------3--4--5-|-6--7--8-7-7-7-7-|
|---------3--4--5-|-6--7--8-8-8-8-8-|
|---------1--2--3-|-4--5--6-8-8-8-8-|
|-0-0-2-3---------|---------6-6-6-6-|


  E       BbB C    E       Bb        E       Bb B  C  C#  D   Eb
                                    6/4
          |-3--|
  E E E E Q Q  Q   E E E E E E E E   E E E E E. E.  E  E.  E.  E
|---------6-7--8-|---------6-6-6-6-|---------6--7---8--9--10--11-||
|---------6-7--8-|---------6-6-6-6-|---------6--7---8--9--10--11-||
|---------7-8--9-|---------7-7-7-7-|---------7--8---9-10--11--12-||
|---------8-9-10-|---------8-8-8-8-|---------8--9--10-11--12--13-||
|---------8-9-10-|---------8-8-8-8-|---------8--9--10-11--12--13-||
|-0-0-2-3-6-7--8-|-0-0-2-3-6-6-6-6-|-0-0-2-3-6--7---8--9--10--11-||


 Chorus
     G#5         Bb5           A5          C5
 5/4                          4/4
  Gtr II
  Q   E  E  E  E  E  E  E +E    E  E  E +E  E  E  E  +E
      |  |  |  |  |  |  |  |    |  |  |  |  |  |  |   |
      /  /  /  /  /  /  /  /    /  /  /  /  /  /  /   /

  Gtr III
  Q   E  E  E  E  E  E  E  E    E  E  E  E  E  E  E  +E
|-------------13-------------|----------13---------------|
|----------13----13----13----|-------13----13----13-(13)-|
|-------15----------15----15-|----15----------15---------|
|----15----------------------|-15------------------------|
|----------------------------|---------------------------|
|----------------------------|---------------------------|


  G#5         Bb5             F5
   E  E  E +E  E  E  E  +E     E  E  E  E E E E +E
   |  |  |  |  |  |  |   |     |  |  |  | | | |  |
   /  /  /  /  /  /  /   /     /  /  /  / / / /  /

   E  E  E  E  E  E  E  +E     E  E  E  E H
|----------13---------------|-----------------------|
|-------13----13----13-(13)-|-------13--------------|
|----15----------15---------|----14----14-----------|
|-15------------------------|-14--------------------|
|---------------------------|-----------------------|
|---------------------------|-----------------------|


    G#5         Bb5
     E  E  E  E  E  E  E +E
     |  |  |  |  |  |  |  |
     /  /  /  /  /  /  /  /

     E  E  E  E  E  E  E  E
||-----------13-------------|
||o-------13----13----13----|
||-----15----------15----15-|
||--15----------------------|
||o-------------------------|
||--------------------------|


  A5          C5              G#5         Bb5
   E  E  E +E  E  E  E  +E     E  E  E +E  E  E  E +E
   |  |  |  |  |  |  |   |     |  |  |  |  |  |  |  |
   /  /  /  /  /  /  /   /     /  /  /  /  /  /  /  /

   E  E  E  E  E  E  E  +E     E  E  E  E  E  E  E  E
|----------13---------------|----13-------13----------|
|-------13----13----13-(13)-|-------13----------13----|
|----15----------15---------|----------15----15----15-|
|-15------------------------|-15----------------------|
|---------------------------|-------------------------|
|---------------------------|-------------------------|


  1.                    2.
  F5          A          F5          A
   E  E  E +E E E Q       E  E  E +E E E +Q
   |  |  |  | | | |       |  |  |  | | |  |
   /  /  /  / / / /       /  /  /  / / /  /

   E  E  E  E H           E  E  E  E H
|---------------------||---------------------||
|-------13-----------o||-------13------------||
|----14----14---------||----14----14---------||
|-14------------------||-14------------------||
|--------------------o||---------------------||
|---------------------||---------------------||


 Verse
  N.C.                  E  E5  Eb5 D5       B5  Bb5 A5E5
 5/4                   4/4
  Gtr II
  E E E E E E E E E E   Q  E E E E E E   Q  E E E E E E
|---------------------|----------------|----------------|
|---------------------|----------------|----------------|
|---------------------|----9-9-8-8-7-7-|----------------|
|-------1-0-----1-0---|----9-9-8-8-7-7-|----9-9-8-8-7---|
|---------------------|----7-7-6-6-5-5-|----9-9-8-8-7---|
|-0-2-3-----3-3-----3-|-0--------------|----7-7-6-6-5-0-|


             Eb5 D5       B5  Bb5 A5E5
    +Q   E E E E E E   Q  E E E E E E
||-------------------|------------------||
||o------------------|-----------------o||
||-------9-9-8-8-7-7-|------------------||
||-------9-9-8-8-7-7-|----9-9-8-8-7-----||
||o------7-7-6-6-5-5-|----9-9-8-8-7----o||
||--(0)--------------|----7-7-6-6-5-0---||


  E5       Eb5 D5      N.C.            E    E5  Eb5 D5         B5  Bb5 A5E5
  +Q   E E E E E E   E E E E E E E E   +Q   E E E E E E   +Q   E E E E E E
|------------------|-----------------|------------------|------------------|
|------------------|-----------------|------------------|------------------|
|------9-9-8-8-7-7-|-----------------|------9-9-8-8-7-7-|-(7)--4-4-3-3-2---|
|------9-9-8-8-7-7-|---------1-0-----|------9-9-8-8-7-7-|-(7)--4-4-3-3-2---|
|------7-7-6-6-5-5-|-----------------|------7-7-6-6-5-5-|-(5)--2-2-1-1-0---|
|-(0)--------------|---0-2-3-----3-0-|-(0)--------------|----------------0-|


    E5       Eb5 D5         B5  Bb5 A5E5             Eb5 D5
    +Q   E E E E E E   +Q   E E E E E E     +Q   E E E E E E
||-------------------|-------------------||------------------|
||o------------------|------------------o||------------------|
||-------9-9-8-8-7-7-|-(7)--4-4-3-3-2----||------9-9-8-8-7-7-|
||-------9-9-8-8-7-7-|-(7)--4-4-3-3-2----||------9-9-8-8-7-7-|
||o------7-7-6-6-5-5-|-(5)--2-2-1-1-0-2-o||-(2)--7-7-6-6-5-5-|
||--(0)--------------|----------------0--||-(0)--------------|


 Pre-Chorus
  N.C.       Bb5     N.C.    BbB5C5  N.C.    Fsus4/Bb
             |-3-|           |-3-|
  +E   E E E Q Q Q   E E E E Q Q Q   E E E E E E E E
|------------------|---------------|---------1-1-1-1-|
|------------------|---------------|---------1-1-1-1-|
|-(7)\-------3-3-3-|---------3-4-5-|---------3-3-3-3-|
|-(7)\-------3-3-3-|---------3-4-5-|---------3-3-3-3-|
|-(5)\-------1-1-1-|---------1-2-3-|---------1-1-1-1-|
|------0-2-3-------|-0-0-2-3-------|-0-0-2-3---------|


  E       Bb5B5 C5  C#5D5 EbFsus4/Bb
  E E E E E. E. E   E. E. E E E E E
|-----------------|---------1-1-1-1-|
|-----------------|---------1-1-1-1-|
|---------3--4--5-|-6--7--8-3-3-3-3-|
|---------3--4--5-|-6--7--8-3-3-3-3-|
|---------1--2--3-|-4--5--6-1-1-1-1-|
|-0-0-2-3---------|-----------------|


  E       BbB5C5  E       Fsus4/Bb
          |-3-|
  E E E E Q Q Q   E E E E E E E E
|---------------|---------1-1-1-1-|
|---------------|---------1-1-1-1-|
|---------3-4-5-|---------3-3-3-3-|
|---------3-4-5-|---------3-3-3-3-|
|---------1-2-3-|---------1-1-1-1-|
|-0-0-2-3-------|-0-0-2-3---------|


  E       Bb5B5 C5  C#5D5 EbBb
  E E E E E. E. E   E. E. E E E E E
|-----------------|---------6-6-6-6-|
|-----------------|---------6-6-6-6-|
|---------3--4--5-|-6--7--8-7-7-7-7-|
|---------3--4--5-|-6--7--8-8-8-8-8-|
|---------1--2--3-|-4--5--6-8-8-8-8-|
|-0-0-2-3---------|---------6-6-6-6-|


  E       BbB C    E       Bb        E       E5 Eb5D5C#5C5 B5
                                    6/4
          |-3--|
  E E E E Q Q  Q   E E E E E E E E   E E E E E. E. E E. E. E
|---------6-7--8-|---------6-6-6-6-|-------------------------||
|---------6-7--8-|---------6-6-6-6-|-------------------------||
|---------7-8--9-|---------7-7-7-7-|---------9--8--7-6--5--4-||
|---------8-9-10-|---------8-8-8-8-|---------9--8--7-6--5--4-||
|---------8-9-10-|---------8-8-8-8-|---------7--6--5-4--3--2-||
|-0-0-2-3-6-7--8-|-0-0-2-3-6-6-6-6-|-0-0-2-3-----------------||


 Chorus
     G#5         Bb5           A5          C5
 5/4                          4/4
  Gtr II
  Q   E  E  E  E  E  E  E +E    E  E  E +E  E  E  E  +E
      |  |  |  |  |  |  |  |    |  |  |  |  |  |  |   |
      /  /  /  /  /  /  /  /    /  /  /  /  /  /  /   /

  Gtr III
  Q   E  E  E  E  E  E  E  E    E  E  E  E  E  E  E  +E
|-------------13-------13----|----------13---------------|
|----------13----13-------13-|-------13----13----13-(13)-|
|-------15----------15-------|----15----------15---------|
|----15----------------------|-15------------------------|
|----------------------------|---------------------------|
|----------------------------|---------------------------|


  G#5         Bb5           F5
   E  E  E +E  E  E  E +E    E  E  E  E E E E +E
   |  |  |  |  |  |  |  |    |  |  |  | | | |  |
   /  /  /  /  /  /  /  /    /  /  /  / / / /  /

   E  E  E  E  E  E  E  E    E  E  E  E H
|----13-------13----------|-----------------------|
|-------13----------13----|-------13--------------|
|----------15----15----15-|----14----14-----------|
|-15----------------------|-14--------------------|
|-------------------------|-----------------------|
|-------------------------|-----------------------|


  G#5         Bb5           A5          C5
   E  E  E  E  E  E  E +E    E  E  E +E  E  E  E  +E
   |  |  |  |  |  |  |  |    |  |  |  |  |  |  |   |
   /  /  /  /  /  /  /  /    /  /  /  /  /  /  /   /

   E  E  E  E  E  E  E  E    E  E  E  E  E  E  E  +E
|----------13-------13----|----------13---------------|
|-------13----13-------13-|-------13----13----13-(13)-|
|----15----------15-------|----15----------15---------|
|-15----------------------|-15------------------------|
|-------------------------|---------------------------|
|-------------------------|---------------------------|


  G#5         Bb5           F5          A
   E  E  E +E  E  E  E +E    E  E  E  E E E E +E
   |  |  |  |  |  |  |  |    |  |  |  | | | |  |
   /  /  /  /  /  /  /  /    /  /  /  / / / /  /

   E  E  E  E  E  E  E  E    E  E  E  E H
|----13-------13----------|----------------------|
|-------13----------13----|-------13-------------|
|----------15----15----15-|----14----14----------|
|-15----------------------|-14-------------------|
|-------------------------|----------------------|
|-------------------------|----------------------|


  G#5         Bb5           A5          C5
   E  E  E  E  E  E  E +E    E  E  E +E  E  E  E  +E
   |  |  |  |  |  |  |  |    |  |  |  |  |  |  |   |
   /  /  /  /  /  /  /  /    /  /  /  /  /  /  /   /

   E  E  E  E  E  E  E  E    E  E  E  E  E  E  E  +E
|----------13-------13----|----------13---------------|
|-------13----13-------13-|-------13----13----13-(13)-|
|----15----------15-------|----15----------15---------|
|-15----------------------|-15------------------------|
|-------------------------|---------------------------|
|-------------------------|---------------------------|


  G#5         Bb5           F5
   E  E  E +E  E  E  E +E    E  E  E  E E E E +E
   |  |  |  |  |  |  |  |    |  |  |  | | | |  |
   /  /  /  /  /  /  /  /    /  /  /  / / / /  /

   E  E  E  E  E  E  E  E    E  E  E  E H
|----13-------13----------|----------------------|
|-------13----------13----|-------13-------------|
|----------15----15----15-|----14----14----------|
|-15----------------------|-14-------------------|
|-------------------------|----------------------|
|-------------------------|----------------------|


  G#5         Bb5           A5          C5
   E  E  E  E  E  E  E +E    E  E  E +E  E  E  E  +E
   |  |  |  |  |  |  |  |    |  |  |  |  |  |  |   |
   /  /  /  /  /  /  /  /    /  /  /  /  /  /  /   /

   E  E  E  E  E  E  E  E    E  E  E  E  E  E  E  +E
|----------13-------13----|----------13---------------|
|-------13----13-------13-|-------13----13----13-(13)-|
|----15----------15-------|----15----------15---------|
|-15----------------------|-15------------------------|
|-------------------------|---------------------------|
|-------------------------|---------------------------|


  G#5         Bb5           F5          A
   E  E  E +E  E  E  E +E    E  E  E  E E E E +E
   |  |  |  |  |  |  |  |    |  |  |  | | | |  |
   /  /  /  /  /  /  /  /    /  /  /  / / / /  /

   E  E  E  E  E  E  E  E    E  E  E  E H
|----13-------13----------|----------------------||
|-------13----------13----|-------13-------------||
|----------15----15----15-|----14----14----------||
|-15----------------------|-14-------------------||
|-------------------------|----------------------||
|-------------------------|----------------------||


 Out-Chorus
  N.C.
  Gtr II
  Wx2            S a +S  S S S S S S S S S S S S S S
|------------||--------------------------------------|
|------------||o-------------------------------------|
|------------||------------------3-0-0-0-0-0-5-0-0-0-|
|------------||--4h5-(5)-5-5-5-5---------------------|
|------------||o-------------------------------------|
|------------||--------------------------------------|


  1.,2.,3.                                      4.
  N.C.                                           Bb5B5 C5C#5D5 Eb5
  S a +S  S S S S S S S S S S   S  +S  S +S   4x E. E. E E. E. E
|---------------------------------------------||-----------------|
|--------------------------------------------o||-----------------|
|-----------------3-0-0-0-0-0-----------------||-3--4--5-6--7--8-|
|-4h5-(5)-5-5-5-5-------------/10-(10)-9-(9)--||-3--4--5-6--7--8-|
|--------------------------------------------o||-1--2--3-4--5--6-|
|---------------------------------------------||-----------------|


   Bridge
    CsBbC5BbC5Bb5Csus2   BbC5CEbsus2
   4/4
    E E E E E Q  E   +E  E Q  E E Q
||--3------------3-|-(3)------6-6-6--|
||o-3------------3-|-(3)------6-6-6--|
||--5-3-5-3-5-3--5-|-(5)-3-5--8-8-8--|
||--5-3-5-3-5-3--5-|-(5)-3-5--8-8-8--|
||o-3-3-3-3-3-3--3-|-(3)-3-3--6-6-6--|
||-----------------|-----------------|


  CsBbC5BbC5Bb5Csus2   BbC5CG#
  E E E E E Q  E   +E  E Q  E E Q
|-3------------3-|-(3)------4-4-4---||
|-3------------3-|-(3)------4-4-4--o||
|-5-3-5-3-5-3--5-|-(5)-3-5--5-5-5---||
|-5-3-5-3-5-3--5-|-(5)-3-5--6-6-6---||
|-3-3-3-3-3-3--3-|-(3)-3-3--6-6-6--o||
|----------------|----------4-4-4---||


  Bb5A5 G#5G5 F#5F5   B5C5C#D5EbE5
   |--4:3---|         |-4:3-|
   Q  Q  Q  Q  E  E   Q Q Q Q E E
|-------------------|-------------|
|-------------------|-------------|
|-15-14-13-12-11-10-|-4-5-6-7-8-9-|
|-15-14-13-12-11-10-|-4-5-6-7-8-9-|
|-13-12-11-10--9--8-|-2-3-4-5-6-7-|
|-------------------|-------------|


  N.C.
  S a +S  S S S +S  S S S S S S S S S S
|---------------------------------------|
|---------------------------------------|
|-------------------0-0-0-0-0-0-3-0-0-0-|
|-4h5-(5)-5-5-5-(5)---------------------|
|---------------------------------------|
|---------------------------------------|


  S a +S  S S S +S  S S S S S +S    S  +S  S +S
|------------------------------------------------|
|------------------------------------------------|
|-------------------0-0-0-0-0-(0)----------------|
|-4h5-(5)-5-5-5-(5)---------------/10-(10)-9-(9)-|
|------------------------------------------------|
|------------------------------------------------|


  N.C.
  S a +S  S S S +S  S S S S S S S S S S   S a +S  S S S S S S S S S S S S S S
|---------------------------------------|-------------------------------------|
|---------------------------------------|-------------------------------------|
|-------------------0-0-0-0-0-0-3-0-0-0-|-----------------3-0-0-0-0-0-3-0-0-0-|
|-4h5-(5)-5-5-5-(5)---------------------|-4h5-(5)-5-5-5-5---------------------|
|---------------------------------------|-------------------------------------|
|---------------------------------------|-------------------------------------|


    N.C.
    S a +S  S S S +S  S S S S S S S S S S
||----------------------------------------|
||o---------------------------------------|
||--------------------0-0-0-0-0-0-3-0-0-0-|
||--4h5-(5)-5-5-5-(5)---------------------|
||o---------------------------------------|
||----------------------------------------|


 1.                                                 2.
  S a +S  S S S +S  S S S S S +S    S  +S  S +S      W
|-------------------------------------------------||------|
|------------------------------------------------o||------|
|-------------------0-0-0-0-0-(0)-----------------||------|
|-4h5-(5)-5-5-5-(5)---------------/10-(10)-9-(9)--||------|
|------------------------------------------------o||------|
|-------------------------------------------------||------|


  N.C.                                              E       Bb5B5 C5C#5D5 Eb5
                                                   6/4
                           |-3-|
  E E E E E Q  E   E E E E q q q   E E E E E Q  E   E E E E E. E. E E. E. E
|----------------|---------------|----------------|--------------------------||
|----------------|---------------|----------------|--------------------------||
|----------------|---------------|----------------|---------3--4--5-6--7--8--||
|----------------|---------------|----------------|---------3--4--5-6--7--8--||
|---------1------|---------1-2-3-|---------1------|---------1--2--3-4--5--6--||
|-0-0-2-3------3-|-0-0-2-3-------|-0-0-2-3------3-|-0-0-2-3------------------||


 Guitar Solo
  N.C.
 4/4
  Gtr IV
                                               /          |
                    ~~~
             |-3-|      |-3--|
  E  E       E E E +Q   E E  E    +S   S  +E   H.         a
|-------------------------------|----------------------------|
|---10pb12==10r8----------------|----------------------------|
|----------------8-(8)----------|----------------------------|
|-----------------------5-------|-------------[5]b7------(5)-|
|-------------------------7-[5]-|-(5)-[0]-(0)----------------|
|-------------------------------|----------------------------|


  C#               Bb5B5 C5C#5D5 Eb5
      ~~~~~~~~~~
  Q  +H     +Q     E. E. E E. E. E
|----------------|-----------------|
|----------------|-----------------|
|----------------|-3--4--5-6--7--8-|
|----------------|-3--4--5-6--7--8-|
|-4--(4)----(4)--|-1--2--3-4--5--6-|
|----------------|-----------------|


              ~~~~~~~          ~~~~~~~
                                       |------6-------|
   S  S  +S   S  +E   S  S  S  S  +E   S  S  S  S  S  S
|--------------------------------------------------------|
|------------15-(15)-------12---------12h14h15p14p12-----|
|-14p12-(12)---------12h14----14-(14)----------------14--|
|--------------------------------------------------------|
|--------------------------------------------------------|
|--------------------------------------------------------|


  N.C.
   |---3---|  |--3--| |--3--|
   S  S  S S  S S S S S S S S S S E E E
|---------------------------------------|
|-12p10------10p8-----------------------|
|-------11s9------9s7-7h9p7-------------|
|---------------------------9p7-----7s9-|
|-------------------------------9-0-----|
|---------------------------------------|


           |----------------14:5------------------|
  E.  E S  E  E  E  E  E  E  E  E  E  E  E  E  E  E
|---------------------------------------------------|
|---------------------------------------------------|
|-9-------11-13-11-11-14-12-12-15-13-13-16-14-14-17-|
|----12---------------------------------------------|
|---------------------------------------------------|
|---------------------------------------------------|


  N.C.
   |--------------12----------------|  |---------12----------|
   E  E  E  E  E  E  E  E  E  E  E  E  E E E E E E E E E E E E
|--------------------------------------------------------------|
|--------------------------------------------------------------|
|-15-15-17-15-15-21-21S22-22S23-23S24-24Sx-xSx-x-x-x-x-x-x-x-x-|
|--------------------------------------------------------------|
|--------------------------------------------------------------|
|--------------------------------------------------------------|


   ~~~~~~
   Q.       E  Q   Q
|---------------------|
|-20b22====20-20r=====|
|-----------------16--|
|---------------------|
|---------------------|
|---------------------|


  Bb5                  G5     F#5F5
  Gtr IV
   +H              a    H
|--------------------------------------|
|----------------------15b17===========|
|-(16)b18========(16)r-16--------------|
|--------------------------------------|
|--------------------------------------|
|--------------------------------------|
|
| Gtr II
|   |-----------4:3------------|
|   Q       Q  Q               Q  E  E
|--------------------------------------|
|--------------------------------------|
|--15------14-13--------------12-11-10-|
|--15------14-13--------------12-11-10-|
|--13------12-11--------------10--9--8-|
|--------------------------------------|
|
| Gtr IV
|   W
|--------------------------------------|
|--------------------------------------|
|--------------------------------------|
|--------------------------------------|
|--------------------------------------|
|--------------------------------------|


  B5       C5         B5          C5 B5     C5  C#5     D5      A5
                                    5/4
   +H             a    H              +W                         Q
|----------------------------------|----------------------------12\--||
|-(15)----------(15)r-15b18========|=(15)r----------------------13\--||
|-(16)----------(16)--16-----------|-(16)-----------------------14\--||
|----------------------------------|----------------------------14\--||
|----------------------------------|---------------------------------||
|----------------------------------|---------------------------------||
|
|   S  S S E E.        E.    E E.      Q    Q   Q       Q        Q
|----------------------------------|---------------------------------||
|----------------------------------|---------------------------------||
|---4--4-4-5-----------4-----5-----|---4----5---6-------7------------||
|---4--4-4-5-----------4-----5-----|---4----5---6-------7--------7\--||
|---2--2-2-3-----------2-----3-----|---2----3---4-------5--------7\--||
|----------------------------------|-----------------------------5\--||
|
|   W                                  Q..    S S S S S S S S S  Q
|----------------------------------|----------x-x-x-x-x-x-x-x-x-12\--||
|----------------------------------|----------x-x-x-x-x-x-x-x-x-13\--||
|----------------------------------|----------x-x-x-x-x-x-x-x-x-14\--||
|----------------------------------|----------x-x-x-x-x-x-x-x-x-14\--||
|----------------------------------|---------------------------------||
|----------------------------------|---------------------------------||


   Chorus
    G#5         Bb5           A5          C5
   4/4
    Gtr II
     E  E  E  E  E  E  E +E    E  E  E  E  E  E  E  +E
     |  |  |  |  |  |  |  |    |  |  |  |  |  |  |   |
     /  /  /  /  /  /  /  /    /  /  /  /  /  /  /   /

    Gtr III
     E  E  E  E  E  E  E  E    E  E  E  E  E  E  E  +E
||-----------13-------13----|----------13---------------|
||o-------13----13-------13-|-------13----13----13-(13)-|
||-----15----------15-------|----15----------15---------|
||--15----------------------|-15------------------------|
||o-------------------------|---------------------------|
||--------------------------|---------------------------|


  G#5         Bb5           F5
   E  E  E +E  E  E  E +E    E  E  E  E E E E +E
   |  |  |  |  |  |  |  |    |  |  |  | | | |  |
   /  /  /  /  /  /  /  /    /  /  /  / / / /  /

   E  E  E  E  E  E  E  E    E  E  E  E H
|----13-------13----------|-----------------------|
|-------13----------13----|-------13--------------|
|----------15----15----15-|----14----14-----------|
|-15----------------------|-14--------------------|
|-------------------------|-----------------------|
|-------------------------|-----------------------|


  G#5         Bb5           A5          C5
   E  E  E  E  E  E  E +E    E  E  E +E  E  E  E  +E
   |  |  |  |  |  |  |  |    |  |  |  |  |  |  |   |
   /  /  /  /  /  /  /  /    /  /  /  /  /  /  /   /

   E  E  E  E  E  E  E  E    E  E  E  E  E  E  E  +E
|----------13-------13----|----------13---------------|
|-------13----13-------13-|-------13----13----13-(13)-|
|----15----------15-------|----15----------15---------|
|-15----------------------|-15------------------------|
|-------------------------|---------------------------|
|-------------------------|---------------------------|


  G#5         Bb5           F5          A
   E  E  E +E  E  E  E +E    E  E  E  E E E E +E
   |  |  |  |  |  |  |  |    |  |  |  | | | |  |
   /  /  /  /  /  /  /  /    /  /  /  / / / /  /

   E  E  E  E  E  E  E  E    E  E  E  E H
|----13-------13----------|-----------------------||
|-------13----------13----|-------13-------------o||
|----------15----15----15-|----14----14-----------||
|-15----------------------|-14--------------------||
|-------------------------|----------------------o||
|-------------------------|-----------------------||


  G#5         Bb5           A5          C5
   E  E  E  E  E  E  E +E    E  E  E  E  E  E  E +E
   |  |  |  |  |  |  |  |    |  |  |  |  |  |  |  |
   /  /  /  /  /  /  /  /    /  /  /  /  /  /  /  /

   E  E  E  E  E  E  E  E    E  E  E  E  E  E  E  E
|-------------------------|-------------13----------|
|-------13----------13----|-------13----------13----|
|----15----15----15----15-|----15----15----15----15-|
|-15----------15----------|-15----------------------|
|-------------------------|-------------------------|
|-------------------------|-------------------------|


  G#5         Bb5           F5
   E  E  E +E  E  E  E +E    E E  E E E E E +E
   |  |  |  |  |  |  |  |    | |  | | | | |  |
   /  /  /  /  /  /  /  /    / /  / / / / /  /

   E  E  E  E  E  E  E  E    E Q.     H
|-------------------------|--------------------||
|-------13----------13----|--------------------||
|----15----15----15----15-|--------------------||
|-15----------15----------|-15-----------------||
|-------------------------|--------------------||
|-------------------------|--------------------||


   Outro
    E5  Eb5 D5       B5  Bb5 A5E        E5  Eb5 D5
    Gtr II
    E E E E E E Q    E E E E E Q  E     E E E E E E Q
||-----------------|-----------------||----------------|
||o----------------|----------------o||----------------|
||--9-9-8-8-7-7----|-----------------||-9-9-8-8-7-7----|
||--9-9-8-8-7-7----|-9-9-8-8-7-------||-9-9-8-8-7-7----|
||o-7-7-6-6-5-5----|-9-9-8-8-7------o||-7-7-6-6-5-5----|
||-----------------|-7-7-6-6-5-0--0--||----------------|


  B5  Bb5 A5E        Em  Ebm Dm         Dm
  E E E E E E +Q     E E E E E E +Q     +Q    Q  H
|------------------|-7-7-6-6-5-5-(5)--|-(5)\----------*|
|------------------|-8-8-7-7-6-6-(6)--|-(6)\----------*|
|------------------|-9-9-8-8-7-7-(7)--|-(7)\----------*|
|-9-9-8-8-7--------|-9-9-8-8-7-7-(7)--|-(7)\----------*|
|-9-9-8-8-7--------|-7-7-6-6-5-5-(5)--|-(5)\----------*|
|-7-7-6-6-5-0-(0)--|------------------|---------------*|


Duration Legend
---------------
W - whole; H - half; Q - quarter; E - 8th; S - 16th; T - 32nd; X - 64th;
a - acciaccatura
+ - note tied to previous; . - note dotted; .. - note double dotted
Uncapitalized letters represent notes that are staccato (1/2 duration)
Irregular groupings are notated above the duration line
Duration letters will always appear directly above the note/fret number
it represents the duration for.  Duration letters with no fret number
below them represent rests.  Multi-bar rests are notated in the form Wxn,
 where n is the number of bars to rest for.  Low melody durations
appear below the staff

Tablature Legend
----------------
 h   - hammer-on
 p   - pull-off
 b   - bend
 pb  - pre-bend
 r   - bend release (if no number after the r, then release immediately)
 /\  - slide into or out of (from/to "nowhere")
 s   - legato slide
 S   - shift slide
  - natural harmonic
[n]  - artificial harmonic
n(n) - tapped harmonic
 ~   - vibrato
 tr  - trill
 T   - tap
 TP  - trem. picking
 PM  - palm muting
\n/  - tremolo bar dip; n = amount to dip
 \n  - tremolo bar down
 n/  - tremolo bar up
/n\  - tremolo bar inverted dip
 =   - hold bend; also acts as connecting device for hammers/pulls
 <>  - volume swell (louder/softer)
 x   - on rhythm slash represents muted slash
 o   - on rhythm slash represents single note slash

Misc Legend
-----------
 |  - bar
||  - double bar
||o - repeat start
o|| - repeat end
*|  - double bar (ending)
 :  - bar (freetime)
 $  - Segno
 &  - Coda
Tempo markers -  = BPM(8/16=s8/s16),
where s8 = swing 8ths, s16 = swing 16ths


***************************************************************************************
* Generated using Power Tab Editor by Brad Larsen - http://powertab.guitarnetwork.org *
***************************************************************************************
Tap to rate this tab
 
# A B C D E F G H I J K L M N O P Q R S T U V W X Y Z