Song name
# A B C D E F G H I J K L M N O P Q R S T U V W X Y Z

Rush - New World Man tab

#----------------------------------PLEASE NOTE---------------------------------#
#This file is the author's own work and represents their interpretation of the #
#song. You may only use this file for private study, scholarship, or research. #
#------------------------------------------------------------------------------#

                                  NEW WORLD MAN
                               As recorded by Rush
              (From the 1982 Album SIGNALS (MERCURY 314 534 633-2))

Words by Peart Music by Lee and Lifeson
Arranged by Rush and Terry Brown
Transcribed by Richard J. Soto 

Copyright 1982 Core Music Publishing
Tab v2.01  2003-05-21  

The main guitar riff of the choruses played in A in fretted with the Middle 
and Ring fingers. While this rings the E (fret 2, G string) is fretted with the 
Index finger and, the F# (fret 4, G string) is fretted with the Pinky finger. 
Take note of the upstroke immediately after F# for it makes the riff flow a 
bit more smoothly and also requires the lifting of the Middle finger. 
A playable PowerTab version of this tab is available for download online at
http://www.powertabs.net/pta.php?page=user,5342 


          F/C                  Bb5                 Gm/D                   A
      x 3 3 2 x x          x 1 3 3 x x          x 5 5 3 x x         x x x 14 x x

           D
     x x x x 15 x

Gtr I (E A D G B E) - 'Slightly Dirtier Electric'
Gtr II (E A D G B E) - 'Chorused Clean Electric with Reverb'
Gtr III (E A D G B E) - 'Synth Sound in Verses'
Gtr IV (E A D G B E) - 'Untitled'

 Intro
  Moderate Rock Q=155
 4/4
  Gtrs I, II
  W          W          W          W
|----------|----------|----------|------|
|----------|----------|----------|------|
|----------|----------|----------|------|
|----------|----------|----------|------|
|----------|----------|----------|------|
|----------|----------|----------|------|


                                                 Fsus2         Fsus4
    E E E E E E E E   E E E E  E  E  E E         Q  Q  Q  Q    Q  Q  Q  Q   4x
||------------------|---------------------||-||--------------|--------------||
||o-----------------|--------------------o||-||o-------------|-------------o||
||----------------2-|------------------2--||-||-----------0--|--------------||
||--0-0-2-0-4-0-2---|-0-0-2-0-/4-(4)-2----||-||--------3-----|----------3---||
||o-----------------|-------------5------o||-||o----3--------|----1--3-----o||
||------------------|---------------------||-||--1-----------|-1------------||


   Verse
    $
    E E E E E E E E   E E E E  E  E  E E  4x
||------------------|---------------------||-|
||o-----------------|--------------------o||-|
||----------------2-|------------------2--||-|
||--0-0-2-0-4-0-2---|-0-0-2-0-/4-(4)-2----||-|
||o-----------------|-------------5------o||-|
||------------------|---------------------||-|


                 1.,2.,3.          4.
    Fsus2         Fsus4                 D5     D5
    Q  Q  Q  Q    Q  Q  Q  Q   4x   E E Q  E E Q
||--------------|--------------||-|---------------||
||o-------------|-------------o||-|-----3------3--||
||-----------0--|--------------||-|-----2------2--||
||--------3-----|----------3---||-|-0-0-0--0-0-0--||
||o----3--------|----1--3-----o||-|---------------||
||--1-----------|-1------------||-|---------------||


   Pre-Chorus
                                        1.
    F/C         F     Bb5         Fsus4 Gm/D          Gm
    Gtr III
    W                 W                 W
    |                 |                 |
    /                 /                 /

    Gtrs I, II
    PM------|         PM------|         PM--------|
    E E E E E E E E   E E E E E E E E   E S S E E E E E E
||--------------1-1-|-------------1-1-|---------------3-3--|
||o-------------1-1-|-------------1-1-|---------------3-3--|
||------x-------2-2-|-----x-------3-3-|-------x-------3-3--|
||----x-----x---3-3-|---x-----x---3-3-|---x-x-----x---5-5--|
||o-x-----x-----3-3-|-x-----x-----1-1-|-x-------x-----5-5--|
||--------------1-1-|-------------1-1-|---------------3-3--|


                             2.
  Gm/D                        Gm/D        Gm    Gm/D           Gm
  +W                          W                 +W
   |                          |                  |
   /                          /                  /

   PM--|                      PM------|          PM--------|
   E E E E S. +T   E.E.       E E E E E E E E    E S S E E E E E E
|------------------------||-|-------------3-3-|----------------3-3--|
|----------8--(8)s10s8--o||-|-------------3-3-|----------------3-3--|
|----------7--(7)s=9s7---||-|-----x-------3-3-|--------x-------3-3--|
|----x-------------------||-|---x-----x---5-5-|----x-x-----x---5-5--|
|--x---x----------------o||-|-x-----x-----5-5-|--x-------x-----5-5--|
|------------------------||-|-------------3-3-|----------------3-3--|


                           To Coda
  F/C         F     Bb5         Fsus4 Gm/D      Gm/D      Gm/D           D5
                                                                         Gtr IV
  W                 W                 W                   +H     E Q     E
  |                 |                 |                    |             |
  /                 /                 /                    /             o

  PM------|         PM------|         PM------|
  E E E E E E E E   E E E E E E E E   E E E E E Q    E    +H.        +E  E
|-------------1-1-|-------------1-1-|-----------3--^-3--|-(3)--------------||
|-------------1-1-|-------------1-1-|-----------3--^-3--|-(3)--------(3)-3-||
|-----x-------2-2-|-----x-------3-3-|-----x-----3--^-3--|-(3)--------(3)-2-||
|---x-----x---3-3-|---x-----x---3-3-|---x-----x-5--^(5)-|-(5)--------(5)-0-||
|-x-----x-----3-3-|-x-----x-----1-1-|-x-----x---5--^(5)-|-(5)--------------||
|-------------1-1-|-------------1-1-|-------------------|------------------||


 Chorus
  $$
  A
 4/4
  Gtr IV
   H              +Q.     E   +H              +Q.     E
   |               |      |    |               |      |
   o               o      o    o               o      o

  +E   E   E   E   E  E E E   +E   E   E   E   E  E E E
|---------------------------|---------------------------|
|-(3)-(3)-(3)-(3)-(3)-3-3-3-|-(3)-(3)-(3)-(3)-(3)-3-3-3-|
|-(2)-(2)-(2)-(2)-(2)-0-2-2-|-(2)-(2)-(2)-(2)-(2)-0-2-2-|
|-(0)--0---2---0---4------0-|-(0)--0---2---0---4------0-|
|---------------------------|---------------------------|
|---------------------------|---------------------------|


  +W                          +W
   |                           |
   o                           /

  +E   E   E   E   E  E E E   +E   E   E   E   E  E E E
|---------------------------|---------------------------|
|-(3)-(3)-(3)-(3)-(3)-3-3-3-|-(3)-(3)-(3)-(3)-(3)-3-3-3-|
|-(2)-(2)-(2)-(2)-(2)-0-2-2-|-(2)-(2)-(2)-(2)-(2)-0-2-2-|
|-(0)--0---2---0---4------0-|-(0)--0---2---0---4------0-|
|---------------------------|---------------------------|
|---------------------------|---------------------------|


  D5
  +E   E   E   E   E  E E E   +E   E   E   E   E  E E E
|---------------------------|---------------------------|
|-(3)-(3)-(3)-(3)-(3)-3-3-3-|-(3)-(3)-(3)-(3)-(3)-3-3-3-|
|-(2)-(2)-(2)-(2)-(2)-0-2-2-|-(2)-(2)-(2)-(2)-(2)-0-2-2-|
|-(0)--0---2---0---4------0-|-(0)--0---2---0---4------0-|
|---------------------------|---------------------------|
|---------------------------|---------------------------|


              To Dbl. Coda
                                                      F
  +E   E   E   E   E  E E E   +E   E   E   E   E  E E E
|---------------------------|-------------------------1-|
|-(3)-(3)-(3)-(3)-(3)-3-3-3-|-(3)-(3)-(3)-(3)-(3)-3-3-1-|
|-(2)-(2)-(2)-(2)-(2)-0-2-2-|-(2)-(2)-(2)-(2)-(2)-0-2-2-|
|-(0)--0---2---0---4------0-|-(0)--0---2---0---4------3-|
|---------------------------|-------------------------3-|
|---------------------------|-------------------------1-|


  F                       Fsus4                     Gm
  +E  +E  E +E  E +E  +E  E   +E  +E  E +E  E +E  E E
|-(1)-(1)-1-(1)-1-(1)-(1)-1-|-(1)-(1)-1-(1)-1-(1)---3-|
|-(1)-(1)-1-(1)-1-(1)-(1)-1-|-(1)-(1)-1-(1)-1-(1)---3-|
|-(2)-(2)-2-(2)-2-(2)-(2)-3-|-(3)-(3)-3-(3)-3-(3)---3-|
|-(3)-(3)-3-(3)-3-(3)-(3)-3-|-(3)-(3)-3-(3)-3-(3)---5-|
|-(3)-(3)-3-(3)-3-(3)-(3)-1-|-(1)-(1)-1-(1)-1-(1)---5-|
|-(1)-(1)-1-(1)-1-(1)-(1)-1-|-(1)-(1)-1-(1)-1-(1)---3-|


                                                    F
  +E  +E  E +E  E +E  +E  E   +E  +E  E +E  E +E  E E
|-(3)-(3)-3-(3)-3-(3)-(3)-3-|-(3)-(3)-3-(3)-3-(3)---1-|
|-(3)-(3)-3-(3)-3-(3)-(3)-3-|-(3)-(3)-3-(3)-3-(3)---1-|
|-(3)-(3)-3-(3)-3-(3)-(3)-3-|-(3)-(3)-3-(3)-3-(3)---2-|
|-(5)-(5)-5-(5)-5-(5)-(5)-5-|-(5)-(5)-5-(5)-5-(5)---3-|
|-(5)-(5)-5-(5)-5-(5)-(5)-5-|-(5)-(5)-5-(5)-5-(5)---3-|
|-(3)-(3)-3-(3)-3-(3)-(3)-3-|-(3)-(3)-3-(3)-3-(3)---1-|


  F                       Fsus4                     Gm
   W                           W
  +E  +E  E +E  E +E  +E  E   +E  +E  E +E  E +E  E E
|-(1)-(1)-1-(1)-1-(1)-(1)-1-|-(1)-(1)-1-(1)-1-(1)---3-|
|-(1)-(1)-1-(1)-1-(1)-(1)-1-|-(1)-(1)-1-(1)-1-(1)---3-|
|-(2)-(2)-2-(2)-2-(2)-(2)-3-|-(3)-(3)-3-(3)-3-(3)---3-|
|-(3)-(3)-3-(3)-3-(3)-(3)-3-|-(3)-(3)-3-(3)-3-(3)---5-|
|-(3)-(3)-3-(3)-3-(3)-(3)-1-|-(1)-(1)-1-(1)-1-(1)---5-|
|-(1)-(1)-1-(1)-1-(1)-(1)-1-|-(1)-(1)-1-(1)-1-(1)---3-|


                                                D5
                                                Gtr IV
   W                         E  Q    H          E
                                                |
                                                o

  +E  +E  E +E  E +E  E E   +E  E E +E  E +E  E E
|-(3)-(3)-3-(3)-3-(3)-3-3-|-(3)-3-3-(3)-3-(3)-----|
|-(3)-(3)-3-(3)-3-(3)-3-3-|-(3)-3-3-(3)-3-(3)---3-|
|-(3)-(3)-3-(3)-3-(3)-3-3-|-(3)-3-3-(3)-3-(3)---2-|
|-(5)-(5)-5-(5)-5-(5)-5-5-|-(5)-5-5-(5)-5-(5)---0-|
|-(5)-(5)-5-(5)-5-(5)-5-5-|-(5)-5-5-(5)-5-(5)-----|
|-(3)-(3)-3-(3)-3-(3)-3-3-|-(3)-3-3-(3)-3-(3)-----|


  D5
  +H              +Q.     E   +H              +Q.     E
   |               |      |    |               |      |
   o               o      o    o               o      o

  +E   E   E   E   E  E E E   +E   E   E   E   E  E E E
|---------------------------|---------------------------|
|-(3)-(3)-(3)-(3)-(3)-3-3-3-|-(3)-(3)-(3)-(3)-(3)-3-3-3-|
|-(2)-(2)-(2)-(2)-(2)-0-2-2-|-(2)-(2)-(2)-(2)-(2)-0-2-2-|
|-(0)--0---2---0---4------0-|-(0)--0---2---0---4------0-|
|---------------------------|---------------------------|
|---------------------------|---------------------------|


  +W                          +W
   |                           |
   o                           /

  +E   E   E   E   E  E E E   +E   E   E   E   E  E E E
|---------------------------|---------------------------|
|-(3)-(3)-(3)-(3)-(3)-3-3-3-|-(3)-(3)-(3)-(3)-(3)-3-3-3-|
|-(2)-(2)-(2)-(2)-(2)-0-2-2-|-(2)-(2)-(2)-(2)-(2)-0-2-2-|
|-(0)--0---2---0---4------0-|-(0)--0---2---0---4------0-|
|---------------------------|---------------------------|
|---------------------------|---------------------------|


                                          D.S. al Coda
  +W                          +W
   |                           |
   o                           /

  +E   E   E   E   E  E E E   +E   E   E   E   E  E E +E
|---------------------------|-----------------------------||
|-(3)-(3)-(3)-(3)-(3)-3-3-3-|-(3)-(3)-(3)-(3)-(3)-3-3-(3)-||
|-(2)-(2)-(2)-(2)-(2)-0-2-2-|-(2)-(2)-(2)-(2)-(2)-0-2-(2)-||
|-(0)--0---2---0---4------0-|-(0)--0---2---0---4----------||
|---------------------------|-----------------------------||
|---------------------------|-----------------------------||


  &               D.S.S. al Dbl. Coda     &&
  Gm/D      Gm/D      Gm/D           D5                           F
  Gtr III                            Gtr IV
  W                   +H     E Q     E     W
  |                    |             |
  /                    /             o

  PM------|
  E E E E E E  E  E   +H.        +E  E    +E   E   E   E   E  E E E
|-----------3--3--3-|-(3)--------(3)---||-------------------------1-|
|-----------3--3--3-|-(3)--------(3)-3-||-(3)-(3)-(3)-(3)-(3)-3-3-1-|
|-----x-----3--3--3-|-(3)--------(3)-2-||-(2)-(2)-(2)-(2)-(2)-0-2-2-|
|---x-----x-5--5--5-|-(5)--------(5)-0-||-(0)--0---2---0---4------3-|
|-x-----x---5-(5)---|------------------||-------------------------3-|
|-------------------|------------------||-------------------------1-|


  F                     Fsus4                     Gm
  +E  +E  E +E  E E +E  E   +E  +E  E +E  E +E  E E
|-(1)-(1)-1-(1)-1-1-(1)-1-|-(1)-(1)-1-(1)-1-(1)---3-|
|-(1)-(1)-1-(1)-1-1-(1)-1-|-(1)-(1)-1-(1)-1-(1)---3-|
|-(2)-(2)-2-(2)-2-2-(2)-3-|-(3)-(3)-3-(3)-3-(3)---3-|
|-(3)-(3)-3-(3)-3-3-(3)-3-|-(3)-(3)-3-(3)-3-(3)---5-|
|-(3)-(3)-3-(3)-3-3-(3)-1-|-(1)-(1)-1-(1)-1-(1)---5-|
|-(1)-(1)-1-(1)-1-1-(1)-1-|-(1)-(1)-1-(1)-1-(1)---3-|


                                                  F
  +E  +E  E +E  E E +E  E   +E  +E  E +E  E +E  E E
|-(3)-(3)-3-(3)-3-3-(3)-3-|-(3)-(3)-3-(3)-3-(3)---1-|
|-(3)-(3)-3-(3)-3-3-(3)-3-|-(3)-(3)-3-(3)-3-(3)---1-|
|-(3)-(3)-3-(3)-3-3-(3)-3-|-(3)-(3)-3-(3)-3-(3)---2-|
|-(5)-(5)-5-(5)-5-5-(5)-5-|-(5)-(5)-5-(5)-5-(5)---3-|
|-(5)-(5)-5-(5)-5-5-(5)-5-|-(5)-(5)-5-(5)-5-(5)---3-|
|-(3)-(3)-3-(3)-3-3-(3)-3-|-(3)-(3)-3-(3)-3-(3)---1-|


  F                     Fsus4                     Gm
   W                         W
  +E  +E  E +E  E E +E  E   +E  +E  E +E  E +E  E E
|-(1)-(1)-1-(1)-1-1-(1)-1-|-(1)-(1)-1-(1)-1-(1)---3-|
|-(1)-(1)-1-(1)-1-1-(1)-1-|-(1)-(1)-1-(1)-1-(1)---3-|
|-(2)-(2)-2-(2)-2-2-(2)-3-|-(3)-(3)-3-(3)-3-(3)---3-|
|-(3)-(3)-3-(3)-3-3-(3)-3-|-(3)-(3)-3-(3)-3-(3)---5-|
|-(3)-(3)-3-(3)-3-3-(3)-1-|-(1)-(1)-1-(1)-1-(1)---5-|
|-(1)-(1)-1-(1)-1-1-(1)-1-|-(1)-(1)-1-(1)-1-(1)---3-|


                                                D5
                                                Gtr IV
   W                         E  Q    H          E
                                                |
                                                o

  +E  +E  E +E  E E +E  E   +E  E E +E  E +E  E E
|-(3)-(3)-3-(3)-3-3-(3)-3-|-(3)-3-3-(3)-3-(3)-----|
|-(3)-(3)-3-(3)-3-3-(3)-3-|-(3)-3-3-(3)-3-(3)---3-|
|-(3)-(3)-3-(3)-3-3-(3)-3-|-(3)-3-3-(3)-3-(3)---2-|
|-(5)-(5)-5-(5)-5-5-(5)-5-|-(5)-5-5-(5)-5-(5)---0-|
|-(5)-(5)-5-(5)-5-5-(5)-5-|-(5)-5-5-(5)-5-(5)-----|
|-(3)-(3)-3-(3)-3-3-(3)-3-|-(3)-3-3-(3)-3-(3)-----|


  D5
  +H              +Q.     E   +H              +Q.     E
   |               |      |    |               |      |
   o               o      o    o               o      o

  +E   E   E   E   E  E E E   +E   E   E   E   E  E E E
|---------------------------|---------------------------|
|-(3)-(3)-(3)-(3)-(3)-3-3-3-|-(3)-(3)-(3)-(3)-(3)-3-3-3-|
|-(2)-(2)-(2)-(2)-(2)-0-2-2-|-(2)-(2)-(2)-(2)-(2)-0-2-2-|
|-(0)--0---2---0---4------0-|-(0)--0---2---0---4------0-|
|---------------------------|---------------------------|
|---------------------------|---------------------------|


  +W                          +H              +Q    +E E
   |                           |               |     | |
   o                           /               /     / o

  +E   E   E   E   E  E E E   +E   E   E   E   E  E  E E
|---------------------------|----------------------------|
|-(3)-(3)-(3)-(3)-(3)-3-3-3-|-(3)-(3)-(3)-(3)-(3)-3--3-3-|
|-(2)-(2)-(2)-(2)-(2)-0-2-2-|-(2)-(2)-(2)-(2)-(2)-0--2-2-|
|-(0)--0---2---0---4------0-|-(0)--0---2---0---4-------0-|
|---------------------------|----------------------------|
|---------------------------|----------------------------|


  D5
  +H              +Q.     E   +H              +Q.     E
   |               |      |    |               |      |
   o               o      o    o               o      o

  +E   E   E   E   E  E E E   +E   E   E   E   E  E E E
|---------------------------|---------------------------|
|-(3)-(3)-(3)-(3)-(3)-3-3-3-|-(3)-(3)-(3)-(3)-(3)-3-3-3-|
|-(2)-(2)-(2)-(2)-(2)-0-2-2-|-(2)-(2)-(2)-(2)-(2)-0-2-2-|
|-(0)--0---2---0---4------0-|-(0)--0---2---0---4------0-|
|---------------------------|---------------------------|
|---------------------------|---------------------------|


  +W                          +W
   |                           |
   o                           /

  +E   E   E   E   E  E E E   +E   E   E   E   E  E E E
|---------------------------|---------------------------|
|-(3)-(3)-(3)-(3)-(3)-3-3-3-|-(3)-(3)-(3)-(3)-(3)-3-3-3-|
|-(2)-(2)-(2)-(2)-(2)-0-2-2-|-(2)-(2)-(2)-(2)-(2)-0-2-2-|
|-(0)--0---2---0---4------0-|-(0)--0---2---0---4------0-|
|---------------------------|---------------------------|
|---------------------------|---------------------------|


  D5
  +W                          +W
   |                           |
   o                           /

  +E   E   E   E   E  E E E   +E   E   E   E   E  E E +E
|---------------------------|-----------------------------||
|-(3)-(3)-(3)-(3)-(3)-3-3-3-|-(3)-(3)-(3)-(3)-(3)-3-3-(3)-||
|-(2)-(2)-(2)-(2)-(2)-0-2-2-|-(2)-(2)-(2)-(2)-(2)-0-2-(2)-||
|-(0)--0---2---0---4------0-|-(0)--0---2---0---4----------||
|---------------------------|-----------------------------||
|---------------------------|-----------------------------||


 Bridge
    D5
  E E E E E E E E   E E E E E E E E   E E E E E E E E   E E E E E E E E
|-----------------|-----------------|-----------------|-----------------|
|-3---3-----3---3-|-----3-----3---3-|-----3-----3---3-|-----3-----3---3-|
|-2---2-----2---2-|-----2-----2---2-|-----2-----2---2-|-----2-----2---2-|
|---0---0-0---0---|-0-0---0-0---0---|-0-0---0-0---0---|-0-0---0-0---0---|
|-----------------|-----------------|-----------------|-----------------|
|-----------------|-----------------|-----------------|-----------------|


  D5                          DsusD5A
                                                                          GtrIV
  W                 W                 W                  E  Q   H         E
                                                                          |
                                                                          o

  E E E E E E E E   E E E E E E E E   E E E E E E E E   +E  E E E E E +E  E
|-----------------|-----------3-3---|-----------------|---------------------|
|-----3-3---3---3-|-----3---3-3-3-3-|---3-3---3-3---3-|-(3)-3-3---3-3-(3)-3-|
|-----2-2---2---2-|-----4---2-2-2-2-|---2-2---2-2---2-|-(2)-2-2---2-2-(2)-2-|
|-0-0-----0---0---|-0-0---0---------|-0-----0-----0---|---------0---------0-|
|-----------------|-----------------|-----------------|---------------------|
|-----------------|-----------------|-----------------|---------------------|


 Chorus
  D5
  +H              +Q.     E   +H              +Q.     E
   |               |      |    |               |      |
   o               o      o    o               o      o

  +E   E   E   E   E  E E E   +E   E   E   E   E  E E E
|---------------------------|---------------------------|
|-(3)-(3)-(3)-(3)-(3)-3-3-3-|-(3)-(3)-(3)-(3)-(3)-3-3-3-|
|-(2)-(2)-(2)-(2)-(2)-0-2-2-|-(2)-(2)-(2)-(2)-(2)-0-2-2-|
|-(0)--0---2---0---4------0-|-(0)--0---2---0---4------0-|
|---------------------------|---------------------------|
|---------------------------|---------------------------|


  +W                          +H              +Q    +E E
   |                           |               |     | |
   o                           /               /     / o

  +E   E   E   E   E  E E E   +E   E   E   E   E  E  E E
|---------------------------|----------------------------|
|-(3)-(3)-(3)-(3)-(3)-3-3-3-|-(3)-(3)-(3)-(3)-(3)-3--3-3-|
|-(2)-(2)-(2)-(2)-(2)-0-2-2-|-(2)-(2)-(2)-(2)-(2)-0--2-2-|
|-(0)--0---2---0---4------0-|-(0)--0---2---0---4-------0-|
|---------------------------|----------------------------|
|---------------------------|----------------------------|


  D5
  +H              +Q.     E   +H              +Q.     E
   |               |      |    |               |      |
   o               o      o    o               o      o

  +E   E   E   E   E  E E E   +E   E   E   E   E  E E E
|---------------------------|---------------------------|
|-(3)-(3)-(3)-(3)-(3)-3-3-3-|-(3)-(3)-(3)-(3)-(3)-3-3-3-|
|-(2)-(2)-(2)-(2)-(2)-0-2-2-|-(2)-(2)-(2)-(2)-(2)-0-2-2-|
|-(0)--0---2---0---4------0-|-(0)--0---2---0---4------0-|
|---------------------------|---------------------------|
|---------------------------|---------------------------|


                                                      C
  +W                          +W
   |                           |
   o                           /

  +E   E   E   E   E  E E E   +E   E   E   E   E  E E  E
|---------------------------|--------------------------8-|
|-(3)-(3)-(3)-(3)-(3)-3-3-3-|-(3)-(3)-(3)-(3)-(3)-3-3--8-|
|-(2)-(2)-(2)-(2)-(2)-0-2-2-|-(2)-(2)-(2)-(2)-(2)-0-2--9-|
|-(0)--0---2---0---4------0-|-(0)--0---2---0---4------10-|
|---------------------------|-------------------------10-|
|---------------------------|--------------------------8-|


 Outro
  C                          Gmaj7/B                 D5
   +E   E  E  +E   E  +E   E E   +E  E E +E  E +E  E E
|--(8)--8--8--(8)--8--(8)--8-7-|-(7)-7-7-(7)-7-(7)-----|
|--(8)--8--8--(8)--8--(8)--8-8-|-(8)-8-8-(8)-8-(8)---3-|
|--(9)--9--9--(9)--9--(9)--9-7-|-(7)-7-7-(7)-7-(7)---2-|
|-(10)-10-10-(10)-10-(10)-10-9-|-(9)-9-9-(9)-9-(9)---0-|
|-(10)-10-10-(10)-10-(10)-10-9-|-(9)-9-9-(9)-9-(9)-----|
|--(8)--8--8--(8)--8--(8)--8-7-|-(7)-7-7-(7)-7-(7)-----|


                                                      C
  +E   E   E   E   E  E E E   +E   E   E   E   E  E E  E
|---------------------------|--------------------------8-|
|-(3)-(3)-(3)-(3)-(3)-3---3-|-(3)-(3)-(3)-(3)-(3)-3-3--8-|
|-(2)-(2)-(2)-(2)-(2)-0---2-|-(2)-(2)-(2)-(2)-(2)-0-2--9-|
|-(0)--0---2---0---4------0-|-(0)--0---2---0---4------10-|
|---------------------------|-------------------------10-|
|---------------------------|--------------------------8-|


  C                            Gmaj7/B                   D5
   +E   E  E  +E   E  +E   +E  E   +E  +E  E +E  E +E  E E  
|--(8)--8--8--(8)--8--(8)--(8)-7-|-(7)-(7)-7-(7)-7-(7)-----|
|--(8)--8--8--(8)--8--(8)--(8)-8-|-(8)-(8)-8-(8)-8-(8)---3-|
|--(9)--9--9--(9)--9--(9)--(9)-7-|-(7)-(7)-7-(7)-7-(7)---2-|
|-(10)-10-10-(10)-10-(10)-(10)-9-|-(9)-(9)-9-(9)-9-(9)---0-|
|-(10)-10-10-(10)-10-(10)-(10)-9-|-(9)-(9)-9-(9)-9-(9)-----|
|--(8)--8--8--(8)--8--(8)--(8)-7-|-(7)-(7)-7-(7)-7-(7)-----|



  +E   E   E   E   E  E E E
|---------------------------|
|-(3)-(3)-(3)-(3)-(3)-3-3-3-|
|-(2)-(2)-(2)-(2)-(2)-0-2-2-|
|-(0)--0---2---0---4------0-|
|---------------------------|
|---------------------------|


                          C
  +E   E   E   E   E  E E  E    E  E  +E   E  +E   E  +E  E
|--------------------------8-|--8--8--(8)--8--(8)--8--(8)---*|
|-(3)-(3)-(3)-(3)-(3)-3-3--8-|--8--8--(8)--8--(8)--8--(8)---*|
|-(2)-(2)-(2)-(2)-(2)-0-2--9-|--9--9--(9)--9--(9)--9--(9)---*|
|-(0)--0---2---0---4------10-|-10-10-(10)-10-(10)-10-(10)---*|
|-------------------------10-|-10-10-(10)-10-(10)-10-(10)---*|
|--------------------------8-|--8--8--(8)--8--(8)--8--(8)---*|


Duration Legend
---------------
W - whole; H - half; Q - quarter; E - 8th; S - 16th; T - 32nd; X - 64th; a - acciaccatura
+ - note tied to previous; . - note dotted; .. - note double dotted
Uncapitalized letters represent notes that are staccato (1/2 duration)
Irregular groupings are notated above the duration line
Duration letters will always appear directly above the note/fret number it represents the
duration for.  Duration letters with no fret number below them represent rests.  Multi-
bar rests are notated in the form Wxn, where n is the number of bars to rest for.  Low
melody durations appear below the staff

Tablature Legend
----------------
 h   - hammer-on
 p   - pull-off
 b   - bend
 pb  - pre-bend
 r   - bend release (if no number after the r, then release immediately)
 /\  - slide into or out of (from/to "nowhere")
 s   - legato slide
 S   - shift slide
  - natural harmonic
[n]  - artificial harmonic
n(n) - tapped harmonic
 ~   - vibrato
 tr  - trill
 T   - tap
 TP  - trem. picking
 PM  - palm muting
\n/  - tremolo bar dip; n = amount to dip
 \n  - tremolo bar down
 n/  - tremolo bar up
/n\  - tremolo bar inverted dip
 =   - hold bend; also acts as connecting device for hammers/pulls
 <>  - volume swell (louder/softer)
 x   - on rhythm slash represents muted slash
 o   - on rhythm slash represents single note slash

Misc Legend
-----------
 |  - bar
||  - double bar
||o - repeat start
o|| - repeat end
*|  - double bar (ending)
 :  - bar (freetime)
 $  - Segno
 &  - Coda
Tempo markers -  = BPM(8/16=s8/s16), where s8 = swing 8ths, s16 = swing 16ths


***************************************************************************************
* Generated using Power Tab Editor by Brad Larsen - http://powertab.guitarnetwork.org *
***************************************************************************************

Tap to rate this tab
 
# A B C D E F G H I J K L M N O P Q R S T U V W X Y Z