Rush - The Analog Kid tab

#----------------------------------PLEASE NOTE---------------------------------#
#This file is the author's own work and represents their interpretation of the #
#song. You may only use this file for private study, scholarship, or research. #
#------------------------------------------------------------------------------##

                                 THE ANALOG KID
                               As recorded by Rush
              (From the 1982 Album SIGNALS (MERCURY 314 534 633-2))

Words by Peart Music by Lee and Lifeson
Arranged by Rush & Terry Brown
Transcribed by Richard J. Soto 
Last Updated: 2004-02-05

A Power Tab version (MIDI playable with the free Power Tab program) of this tab 
is available for download at http://www.powertabs.net/pta.php?page=song,9291 

Performance Notes:

On both the Roll The Bones & Counterparts tours in the early-mid 1990's, 
Alex played the F#Maj and the F#sus4 (measures 11-16) an octave lower (2nd fret) 
down low on the neck. 
However, on the original recording and when played on the Signals-New World Tour 
(1982-3), he played it in the high neck position as shown here high up on the neck.

Not counting the solo, there's basically two different guitar sound settings; a 
harder distorted sound with a touch of phaser, 
and the cleaner yet overdriven sound that's chorused. 
The later is mainly played within the song's choruses and from the 
end of the solo to the near-end of the song.

The guitar solo features a harmonizer that's 
pitch shifted up a fourth (2.5 steps) from measures 111-126


           B                  Bsus4                F#XIV              F#sus4XIV
      7 9 9 8 x x          7 7 9 9 x x        14 16 16 15 x x      14 14 16 16 x x

           G                  Gsus4                  E                  Esus4
      3 5 5 4 x x          3 3 5 5 x x          0 2 2 1 x x          0 0 2 2 x x

           A                  Asus4                 F/A                  G/B
      5 7 7 6 x x          5 5 7 7 x x          x x 7 5 6 5          x x 9 7 8 7

         Csus4
     x x 10 10 8 8

Gtr I (E A D G B E) - 'Main Guitar (Distortion & Phaser)'
Gtr II (E A D G B E) - 'Main Guitar 2 (Overdriven & Chorused)'
Gtr III (E A D G B E) - 'Guitar Solo's Harmonizer (pitch shifted up a Fourth)'
Gtr IV (E A D G B E) - 'Main Synth in choruses'

 Intro
  Moderately Fast Rock Q=186
  A
 4/4
  Gtrs I, II
  |--3---|               |-4:3-|   |----6----|
  E +E  +E  E H    +E    E E E E E E E E E E E
|----------------------|-----------------------|
|-2-(2)-(2)---2----(2)-|-----------------------|
|-2-(2)-(2)---2----(2)-|-------2p0-4p2p0-------|
|-2-(2)-(2)---2----(2)-|-0h2h4-----------4p2p0-|
|-0-(0)-(0)---0----(0)-|-----------------------|
|----------------------|-----------------------|


    A5
    |--3---|               |-4:3-|   |----6----|
    E +E  +E  E H    +E    E E E E E E E E E E E  3x
||-----------------------|------------------------||
||o----------------------|-----------------------o||
||--2-(2)-(2)---2----(2)-|-------2p0-4p2p0--------||
||--2-(2)-(2)---2----(2)-|-0h2h4-----------4p2p0--||
||o-0-(0)-(0)---0----(0)-|-----------------------o||
||-----------------------|------------------------||


 Pre-Verse
  B                  Bsus4             B                  Bsus4
  Q  E Q  E Q    +E  E E E E E E +E    Q  E Q  E Q    +E  E E E Q  Q
|--------------|---------------------|--------------|-----------------|
|--------------|---------------------|--------------|-----------------|
|-8--8-8--8-8--|-(8)-9-9-9-9-9-9-(9)-|-8--8-8--8-8--|-(8)-9-9-9-9--9--|
|-9--9-9--9-9--|-(9)-9-9-9-9-9-9-(9)-|-9--9-9--9-9--|-(9)-9-9-9-9--9--|
|-9--9-9--9-9--|-(9)-7-7-7-7-7-7-(7)-|-9--9-9--9-9--|-(9)-7-7-7-7--7--|
|-7--7-7--7-7--|-(7)-7-7-7-7-7-7-(7)-|-7--7-7--7-7--|-(7)-7-7-7-7--7--|


  B                    Bsus4
  Q  E Q  +E  Q    +E   E E E E +Q    E
|----------------|----------------------|
|----------------|----------------------|
|-8--8-8--(8)-8--|-(8)--9-9-9-9-(9)/----|
|-9--9-9--(9)-9--|-(9)--9-9-9-9-(9)/----|
|-9--9-9--(9)-9--|-(9)--7-7-7-7-(7)/----|
|-7--7-7--(7)-7--|-(7)--7-7-7-7-(7)/----|


  F#XIV                       F#sus4XIV
   Q   E  Q   E  Q     +E   E  E  E  E  E  E  +E
|-------------------|------------------------------|
|-------------------|------------------------------|
|-15--15-15--15-15--|-(15)-16-16-16-16-16-16-(16)--|
|-16--16-16--16-16--|-(16)-16-16-16-16-16-16-(16)--|
|-16--16-16--16-16--|-(16)-14-14-14-14-14-14-(14)--|
|-14--14-14--14-14--|-(14)-14-14-14-14-14-14-(14)--|


  F#XIV                     F#sus4XIV
   Q   E  Q   E  Q     E  E  E  E  E  E  E  +E
|-------------------|---------------------------|
|-------------------|---------------------------|
|-15--15-15--15-15--|-15-16-16-16-16-16-16-(16)-|
|-16--16-16--16-16--|-16-16-16-16-16-16-16-(16)-|
|-16--16-16--16-16--|-16-14-14-14-14-14-14-(14)-|
|-14--14-14--14-14--|-14-14-14-14-14-14-14-(14)-|


  F#XIV                    F#sus4XIV
   Q   E  Q   E  Q     +E   E  E  E  Q   +E   +E
|-------------------|------------------------------||
|-------------------|------------------------------||
|-15--15-15--15-15--|-(15)-16-16-16-16--(16)-(16)\-||
|-16--16-16--16-16--|-(16)-16-16-16-16--(16)-(16)\-||
|-16--16-16--16-16--|-(16)-14-14-14-14--(14)-(14)\-||
|-14--14-14--14-14--|-(14)-14-14-14-14--(14)-(14)\-||


 1st Verse
  G                      Gsus4         G
  Q  E Q  +E  Q    +S  S E E E Q  Q    Q  E Q  E Q
|----------------|-------------------|---------------|
|----------------|-------------------|---------------|
|-4--4-4--(4)-4--|-(4)---5-5-5-5--5--|-4--4-4--4-4---|
|-5--5-5--(5)-5--|-(5)---5-5-5-5--5--|-5--5-5--5-5---|
|-5--5-5--(5)-5--|-(5)---3-3-3-3--3--|-5--5-5--5-5---|
|-3--3-3--(3)-3--|-(3)---3-3-3-3--3--|-3--3-3--3-3---|


      Gsus4               G                  Gsus4
  +E  E E +E  E E E +E    Q  E Q  E Q    +E  E E E Q  q
|-----------------------|--------------|-----------------|
|-----------------------|--------------|-----------------|
|-(4)-5-5-(5)-5-5-5-(5)-|-4--4-4--4-4--|-(4)-5-5-5-5--5--|
|-(5)-5-5-(5)-5-5-5-(5)-|-5--5-5--5-5--|-(5)-5-5-5-5--5--|
|-(5)-3-3-(3)-3-3-3-(3)-|-5--5-5--5-5--|-(5)-3-3-3-3--3--|
|-(3)-3-3-(3)-3-3-3-(3)-|-3--3-3--3-3--|-(3)-3-3-3-3--3--|


  E                    A                     E                     A
  Q  E Q  +E  Q    +E  E +E  +E  E E E +E    Q  E Q  +E  Q    +Q   Q  Q  +q
|----------------|-------------------------|----------------|-----------------|
|----------------|-----2-(2)-(2)-2-2-2-(2)-|----------------|------2--2--(2)--|
|-1--1-1--(1)-1--|-(1)-2-(2)-(2)-2-2-2-(2)-|-1--1-1--(1)-1--|-(1)--2--2--(2)--|
|-2--2-2--(2)-2--|-(2)-2-(2)-(2)-2-2-2-(2)-|-2--2-2--(2)-2--|-(2)--2--2--(2)--|
|-2--2-2--(2)-2--|-(2)-0-(0)-(0)-0-0-0-(0)-|-2--2-2--(2)-2--|-(2)--0--0--(0)--|
|-0--0-0--(0)-0--|-(0)---------------------|-0--0-0--(0)-0--|-(0)-------------|


    A5
    |--3---|               |-4:3-|   |----6----|
    E +E  +E  E H    +E    E E E E E E E E E E E
||-----------------------|------------------------||
||o----------------------|-----------------------o||
||--2-(2)-(2)---2----(2)-|-------2p0-4p2p0--------||
||--2-(2)-(2)---2----(2)-|-0h2h4-----------4p2p0--||
||o-0-(0)-(0)---0----(0)-|-----------------------o||
||-----------------------|------------------------||


 2nd Verse
  A                Asus4           A                  Asus4
  Q  E Q  Q  E   E E E +Q   E Q    Q  E Q  E Q    +E  E E E E E E +E
|--------------|-----------------|--------------|---------------------|
|--------------|-----------------|--------------|---------------------|
|-6--6-6--6--6-|---7-7-(7)--7-7--|-6--6-6--6-6--|-(6)-7-7-7-7-7-7-(7)-|
|-7--7-7--7--7-|---7-7-(7)--7-7--|-7--7-7--7-7--|-(7)-7-7-7-7-7-7-(7)-|
|-7--7-7--7--7-|---5-5-(5)--5-5--|-7--7-7--7-7--|-(7)-5-5-5-5-5-5-(5)-|
|-5--5-5--5--5-|---5-5-(5)--5-5--|-5--5-5--5-5--|-(5)-5-5-5-5-5-5-(5)-|


  A                  Asus4             A                  Asus4
  Q  E Q  E Q    +E  E E E E E E +E    Q  E Q  E Q    +E  E E E E E E +E
|--------------|---------------------|--------------|----------------------|
|--------------|---------------------|--------------|----------------------|
|-6--6-6--6-6--|-(6)-7-7-7-7-7-7-(7)-|-6--6-6--6-6--|-(6)-7-7-7-7-7-7-(7)\-|
|-7--7-7--7-7--|-(7)-7-7-7-7-7-7-(7)-|-7--7-7--7-7--|-(7)-7-7-7-7-7-7-(7)\-|
|-7--7-7--7-7--|-(7)-5-5-5-5-5-5-(5)-|-7--7-7--7-7--|-(7)-5-5-5-5-5-5-(5)\-|
|-5--5-5--5-5--|-(5)-5-5-5-5-5-5-(5)-|-5--5-5--5-5--|-(5)-5-5-5-5-5-5-(5)\-|


  G                      Gsus4         G                Gsus4
  Q  E Q  +E  Q    +S  S E E E Q  Q    Q  E Q  E Q    E E E E Q  Q
|----------------|-------------------|--------------|----------------|
|----------------|-------------------|--------------|----------------|
|-4--4-4--(4)-4--|-(4)---5-5-5-5--5--|-4--4-4--4-4--|-5-5-5-5-5--5---|
|-5--5-5--(5)-5--|-(5)---5-5-5-5--5--|-5--5-5--5-5--|-5-5-5-5-5--5---|
|-5--5-5--(5)-5--|-(5)---3-3-3-3--3--|-5--5-5--5-5--|-3-3-3-3-3--3---|
|-3--3-3--(3)-3--|-(3)---3-3-3-3--3--|-3--3-3--3-3--|-3-3-3-3-3--3---|


    A5
    |--3---|               |-4:3-|   |----6----|
    E +E  +E  E H    +E    E E E E E E E E E E E
||-----------------------|------------------------||
||o----------------------|-----------------------o||
||--2-(2)-(2)---2----(2)-|-------2p0-4p2p0--------||
||--2-(2)-(2)---2----(2)-|-0h2h4-----------4p2p0--||
||o-0-(0)-(0)---0----(0)-|-----------------------o||
||-----------------------|------------------------||


 Chorus
  Half-Time E=186
                               $
  F/A         G/B              Csus4       G/B
  Gtr IV
  W           W                W           W
  |           |                |           |
  /           /                /           /

  Gtr II
  H    H      H    E E S S E   H    H      H    E E S S E
|------3----|-3----3-3-3-3---|------1----|------3-3-3-3---|
|------3----|-3----3-3-3-3---|------1----|------3-3-3-3---|
|-5----5----|-4----4-4-4-4---|-2----2----|-4----4-4-4-4---|
|-5----5----|-5----5-5-5-5---|-3----3----|-5----5-5-5-5---|
|-3----3----|-5----5-5-5-5---|-3----3----|-5----5-5-5-5---|
|-3----3----|-3----3-3-3-3---|-1----1----|-3----3-3-3-3---|


    F/A         G/B              Csus4       G/B
    W           W                W           W
    |           |                |           |
    /           /                /           /

    H    H      H    E E S S E   H    H      H    E E S S E
||-------3----|-3----3-3-3-3---|------1----|------3-3-3-3-----||
||o------3----|-3----3-3-3-3---|------1----|------3-3-3-3----o||
||--5----5----|-4----4-4-4-4---|-2----2----|-4----4-4-4-4-----||
||--5----5----|-5----5-5-5-5---|-3----3----|-5----5-5-5-5-----||
||o-3----3----|-5----5-5-5-5---|-3----3----|-5----5-5-5-5----o||
||--3----3----|-3----3-3-3-3---|-1----1----|-3----3-3-3-3-----||


                                     To Coda
  F/A             G/B             Csus4           G/B
   W               W               W               W
   |               |               |               |
   /               /               /               /

   H     Q   Q     H     Q   Q     H     Q   Q     E.  E.  E.  E.  E  E
|--8-----8---8--|-10----10--10--|--8-----8---8--|-10--10--10--10--10-10---||
|--8-----8---8--|-10----10--10--|--8-----8---8--|-10--10--10--10--10-10---||
|-10----10--10--|-12----12--12--|-10----10--10--|-12--12--12--12--12-12---||
|-10----10--10--|-12----12--12--|-10----10--10--|-12--12--12--12--12-12---||
|--8-----8---8--|-10----10--10--|--8-----8---8--|-10--10--10--10--10-10---||
|---------------|---------------|---------------|-------------------------||


   Out-Chorus
    Q=186
    A5
    Gtrs I, II
    |--3---|               |-4:3-|   |----6----|
    E +E  +E  E H    +E    E E E E E E E E E E E
||-----------------------|------------------------||
||o----------------------|-----------------------o||
||--2-(2)-(2)---2----(2)-|-------2p0-4p2p0--------||
||--2-(2)-(2)---2----(2)-|-0h2h4-----------4p2p0--||
||o-0-(0)-(0)---0----(0)-|-----------------------o||
||-----------------------|------------------------||


 3rd Verse
  G                    Gsus4         G
  Q  E Q  E Q    +S  S E E E Q  Q    Q  E Q  Q  E
|--------------|-------------------|---------------|
|--------------|-------------------|---------------|
|-4--4-4--4-4--|-(4)---5-5-5-5--5--|-4--4-4--4--4--|
|-5--5-5--5-5--|-(5)---5-5-5-5--5--|-5--5-5--5--5--|
|-5--5-5--5-5--|-(5)---3-3-3-3--3--|-5--5-5--5--5--|
|-3--3-3--3-3--|-(3)---3-3-3-3--3--|-3--3-3--3--3--|


      Gsus4        G                  Gsus4
  +E  E Q  Q  Q    Q  E Q  E Q    +E  E E E E E q
|----------------|--------------|------------------|
|----------------|--------------|------------------|
|-(4)-5-5--5--5--|-4--4-4--4-4--|-(4)-5-5-5-5-5-5--|
|-(5)-5-5--5--5--|-5--5-5--5-5--|-(5)-5-5-5-5-5-5--|
|-(5)-3-3--3--3--|-5--5-5--5-5--|-(5)-3-3-3-3-3-3--|
|-(3)-3-3--3--3--|-3--3-3--3-3--|-(3)-3-3-3-3-3-3--|


  E                     A         E                    A
                                                              |-3--|
  Q  E Q  +E  Q    +Q   Q  H      E Q  E +Q   Q    +E  E +Q   Q Q +q
|----------------|--------------|----------------|---------------------|
|----------------|------2--2----|----------------|-----2-(2)--2-2-(2)--|
|-1--1-1--(1)-1--|-(1)--2--2----|-1-1--1-(1)--1--|-(1)-2-(2)--2-2-(2)--|
|-2--2-2--(2)-2--|-(2)--2--2----|-2-2--2-(2)--2--|-(2)-2-(2)--2-2-(2)--|
|-2--2-2--(2)-2--|-(2)--0--0----|-2-2--2-(2)--2--|-(2)-0-(0)--0-0-(0)--|
|-0--0-0--(0)-0--|-(0)----------|-0-0--0-(0)--0--|-(0)-----------------|


  A5                                          D/E
  |--3---|
  E +E  +E  E E +Q   Q    E      +E   E E E E Q
|-----------------------|---------------------2--|
|-----------------------|---------------------3--|
|-2-(2)-(2)---2-(2)-----|---------------------2--|
|-2-(2)-(2)---2-(2)-----|---------------------2--|
|-0-(0)-(0)---0-(0)--0--|-------------0-0--------|
|-----------------------|-3b3.5==(3)r-----3-3----|


  A5                                              D/E
  |--3---|
  E +E  +E  E E +E   E  E E   E      +E   E E E E Q
|---------------------------|---------------------2--||
|---------------------------|---------------------3--||
|-2-(2)-(2)---2-(2)-(2)-----|---------------------2--||
|-2-(2)-(2)---2-(2)-(2)-----|---------------------2--||
|-0-(0)-(0)---0-(0)--0--0-0-|-------------0-0--------||
|---------------------------|-3b3.5==(3)r-----3-3----||


 4th Verse
    A                    Asus4       A                  Asus4
  a Q  E E +H       +Q   E Q  E Q    Q  E Q  E Q    +E  E E E E E E +E
|-----------------|----------------|--------------|----------------------|
|-----------------|----------------|--------------|----------------------|
|-3S6--6-6-(6)----|-(6)--7-7--7-7--|-6--6-6--6-6--|-(6)-7-7-7-7-7-7-(7)--|
|-4S7--7-7-(7)----|-(7)--7-7--7-7--|-7--7-7--7-7--|-(7)-7-7-7-7-7-7-(7)--|
|-4S7--7-7-(7)----|-(7)--5-5--5-5--|-7--7-7--7-7--|-(7)-5-5-5-5-5-5-(5)--|
|-2S5--5-5-(5)----|-(5)--5-5--5-5--|-5--5-5--5-5--|-(5)-5-5-5-5-5-5-(5)--|


  A                     Asus4       A                D  G
  Q  E Q  +E  Q    +Q   E E Q  q    Q  Q  Q  Q    Q  Q   E  E  E  +E
|----------------|----------------|-5--5--5--5--|----------------------|
|----------------|----------------|-5--5--5--5--|----7--12-12-12-(12)\-|
|-6--6-6--(6)-6--|-(6)--7-7-7--7--|-6--6--6--6--|----7--12-12-12-(12)\-|
|-7--7-7--(7)-7--|-(7)--7-7-7--7--|-7--7--7--7--|----7--12-12-12-(12)\-|
|-7--7-7--(7)-7--|-(7)--5-5-5--5--|-7--7--7--7--|-5--5--10-10-10-(10)\-|
|-5--5-5--(5)-5--|-(5)--5-5-5--5--|-5--5--5--5--|----------------------|


  G                      Gsus4         G                Gsus4
                                                        |-3-|
  Q  E Q  +E  Q    +S  S E E E Q  Q    Q  E Q  +E  Q    Q Q Q Q  Q
|----------------|-------------------|----------------|-------------|
|----------------|-------------------|----------------|-------------|
|-4--4-4--(4)-4--|-(4)---5-5-5-5--5--|-4--4-4--(4)-4--|-5-5-5-5--5--|
|-5--5-5--(5)-5--|-(5)---5-5-5-5--5--|-5--5-5--(5)-5--|-5-5-5-5--5--|
|-5--5-5--(5)-5--|-(5)---3-3-3-3--3--|-5--5-5--(5)-5--|-3-3-3-3--3--|
|-3--3-3--(3)-3--|-(3)---3-3-3-3--3--|-3--3-3--(3)-3--|-3-3-3-3--3--|


                          1.
    A5
    W                      W
    |--3---|               |-4:3-|   |----6----|
    E +E  +E  E H    +E    E E E E E E E E E E E
||-----------------------|------------------------||
||o----------------------|-----------------------o||
||--2-(2)-(2)---2----(2)-|-------2p0-4p2p0--------||
||--2-(2)-(2)---2----(2)-|-0h2h4-----------4p2p0--||
||o-0-(0)-(0)---0----(0)-|-----------------------o||
||-----------------------|------------------------||


 2.                  E=186
    D.S. al Coda     &
            A5       G/B
                     Gtr IV
  W                   W
                      |
                      /

                     Gtr II
  |-4:3-|   |-3-|
  E E E E E Q Q Q     H     Q   E  +E
|-----------------||-10----10--10-(10)\--||
|-----------------||-10----10--10-(10)\--||
|-------2p0-2-2-2-||-12----12--12-(12)\--||
|-0h2h4-----2-2-2-||-12----12--12-(12)\--||
|-----------0-0-0-||-10----10--10-(10)\--||
|-----------------||---------------------||


   Bridge
    Q=186
    Am
    Gtr II
    Q     +E  E +H       E  E  E E +H
||--5-----(5)-5-(5)----|-5--5--5-5-(5)----|
||o-5-----(5)-5-(5)----|-5--5--5-5-(5)----|
||--5-----(5)-5-(5)----|-5--5--5-5-(5)----|
||--7-----(7)-7-(7)----|-7--7--7-7-(7)----|
||o-7-----(7)-7-(7)----|-7--7--7-7-(7)----|
||--5-----(5)-5-(5)----|-5--5--5-5-(5)----|
|
|   Gtr I
|   E +E   E  E +H       E +E  E E +H
||---------------------|------------------|
||o-----------5-(5)----|---------5-(5)----|
||---------7-----------|-------7----------|
||--7-(7)--------------|-7-(7)------------|
||o--------------------|------------------|
||---------------------|------------------|


  Gsus4
  Q   E E +H           E E E E +H
|-3---3-3-(3)--------|-3-3-3-3-(3)----------||
|-3---3-3-(3)--------|-3-3-3-3-(3)---------o||
|-5---5-5-(5)--------|-4-4-4-4-(4)----------||
|-5---5-5-(5)--------|-5-5-5-5-(5)----------||
|-3---3-3-(3)--------|-5-5-5-5-(5)---------o||
|-3---3-3-(3)--------|-3-3-3-3-(3)----------||
|
| E E E E +E  E +Q     E E E E +E  E +Q
|-------3-(3)--------|-------3-(3)----------||
|-----3-------3-(3)--|-----3-------3-(3)---o||
|---5----------------|---4------------------||
|-5------------------|-5--------------------||
|--------------------|---------------------o||
|--------------------|----------------------||


  F
  Q     E E +H       Q     E E +H
|------------------|----------------------|
|------------------|----------------------|
|-2-----2-2-(2)----|-2-----2-2-(2)--------|
|-3-----3-3-(3)----|-3-----3-3-(3)--------|
|-3-----3-3-(3)----|-3-----3-3-(3)--------|
|-1-----1-1-(1)----|-1-----1-1-(1)--------|
|
| E +E  E E +H       E +E  E E  E  E +Q
|---------3-(3)----|---------3--3---------|
|-------3----------|-------3-------3-(3)--|
|-5-(5)------------|-4-(4)----------------|
|------------------|----------------------|
|------------------|----------------------|
|------------------|----------------------|


  G                        Gsus4   G
  Q     E E +H       Q   E E +Q     Q
|------------------|--------------------|
|------------------|--------------------|
|-4-----4-4-(4)----|-4---4-5-(5)----4---|
|-5-----5-5-(5)----|-5---5-5-(5)----5---|
|-5-----5-5-(5)----|-5---5-3-(3)----5---|
|-3-----3-3-(3)----|-3---3-3-(3)----3---|
|
| E +E  E E +H       E E E E +E  E +Q
|---------3-(3)----|-------3-(3)--------|
|-------3----------|-----3-------3-(3)--|
|-5-(5)------------|-4-4----------------|
|------------------|--------------------|
|------------------|--------------------|
|------------------|--------------------|


  F                                         G
  Q     E E +H       Q     E E +H           E +Q   E +Q   Q    E E +Q   Q  q
|------------------|----------------------|------------------|----------------||
|------------------|----------------------|------------------|----------------||
|-2-----2-2-(2)----|-2-----2-2-(2)--------|-4-(4)--4-(4)--4--|-4-4-(4)--4--4--||
|-3-----3-3-(3)----|-3-----3-3-(3)--------|-5-(5)--5-(5)--5--|-5-5-(5)--5--5--||
|-3-----3-3-(3)----|-3-----3-3-(3)--------|-5-(5)--5-(5)--5--|-5-5-(5)--5--5--||
|-1-----1-1-(1)----|-1-----1-1-(1)--------|-3-(3)--3-(3)--3--|-3-3-(3)--3--3--||
|
| E +E  E E +H       E +E  E E  E  E +Q     E +Q   E +Q   Q    E E +Q   Q  q
|---------3-(3)----|---------3--3---------|-3-(3)--3-(3)--3--|-3-3-(3)--3--3--||
|-------3----------|-------3-------3-(3)--|-3-(3)--3-(3)--3--|-3-3-(3)--3--3--||
|-5-(5)------------|-4-(4)----------------|-4-(4)--4-(4)--4--|-4-4-(4)--4--4--||
|------------------|----------------------|-5-(5)--5-(5)--5--|-5-5-(5)--5--5--||
|------------------|----------------------|------------------|----------------||
|------------------|----------------------|------------------|----------------||


 Guitar Solo
  A
  Gtr II                 Gtrs I, II
  >
                           \5_______
  W          +H     +Q   S S   +E
|-0--------|-(0)----(0)------------|
|-2--------|-(2)----(2)------------|
|-2--------|-(2)----(2)------------|
|-2--------|-(2)----(2)------------|
|-0--------|-(0)----(0)--3p0---(0)-|
|----------|-----------------------|


               /
  +Q   +Q.     Q.       +Q.      +Q.      +S   S S S
|-------------------|---------------------------------|
|-------------------|---------------------------------|
|------------<12>---|-(<12>)---(<12>)---(<12>)-5-5-5--|
|-------------------|---------------------------------|
|-(0)--(0)----------|---------------------------------|
|-------------------|---------------------------------|


  S S S S S +S  S S S S S S S S S S   +S  a S S S S S S S S S S S S S S +S
|-----------------------------------|----------------------------------------|
|-----------------------------------|-----------------------------5-6-5-(5)--|
|-5-5-5-4-0-(0)-0-0-4-4-5-5-7-7-4-4-|-(4)S5-7-7-7-6-5-5-6-7-7-7-7------------|
|-----------------------------------|----------------------------------------|
|-----------------------------------|----------------------------------------|
|-----------------------------------|----------------------------------------|


  S S S S S S S S +S  a S S S S a S S S
|---------------------------------------|
|-8-6-5-6-------------------------------|
|---------5-5-5-5-(5)S7-7-7-9-9S7-7-7-4-|
|---------------------------------------|
|---------------------------------------|
|---------------------------------------|


   \1.5/  \1.5/  \1.5/  \1.5/        \1.5/  \1.5/  \1.5/  \1.5/  \1.5/  \1.5/  \1.5/
  +S     +S     +S     +E     +E  E +S     +S     +S     +S     +S     +S     +S
|------------------------------------------------------------------------------------|
|------------------------------------------------------------------------------------|
|-(4)----(4)----(4)----(4)----(4)p0-(0)----(0)----(0)----(0)----(0)----(0)----(0)----|
|------------------------------------------------------------------------------------|
|------------------------------------------------------------------------------------|
|------------------------------------------------------------------------------------|


  ~~~~~~~   ~                    ~~
  Q  +E   E Q   E E    E E  E E  Q   E E
|-8--(8)----7-------|--------------------|
|--------10----10-8-|-10-8---------------|
|-------------------|------10-9-10--10-9-|
|-------------------|--------------------|
|-------------------|--------------------|
|-------------------|--------------------|


                            \1.5/ \1.5/
                         ~~~~~~~~~~~~~~~~~~~
   E E  E E E  E E E   E E +E     E     +Q   +Q
|--------------------|-----------------------------|
|----8-10-8----------|-----------------------------|
|-10--------9-10-9-7-|-9-7-(7)----7-----(7)--(7)/--|
|--------------------|-----------------------------|
|--------------------|-----------------------------|
|--------------------|-----------------------------|


  Gtrs I, II, III
   Q      E  E  E  E  E  E    E  E  E  E  E  E  E  E
|-15b17--15-13-15-12-13-12-|-12-------------------------|
|--------------------------|----15-13-12-13-12-15-15b17-|
|--------------------------|----------------------------|
|--------------------------|----------------------------|
|--------------------------|----------------------------|
|--------------------------|----------------------------|


                          \2_______/
            |--3--|
   +Q    E  Q  Q  Q  E    H       +H
|----------------------|-----------------|
|-(15)--15-13-15-12-13-|-12------(12)----|
|----------------------|-----------------|
|----------------------|-----------------|
|----------------------|-----------------|
|----------------------|-----------------|


                                                     \3
   ~~~     ~~~       ~~
   Q.   E  Q.   E    Q  E  q  E  E E   E E a E E E E Q     +W
|-----------------|------------------|-------------------|--------|
|-10----8-12----8-|-10--8-12--8-10-8-|-------------------|--------|
|-----------------|------------------|-9-7-7S5-7-5-5-0---|-(0)----|
|-----------------|------------------|-------------------|--------|
|-----------------|------------------|-------------------|--------|
|-----------------|------------------|-------------------|--------|


   |-3--|    |-3--|    |-3--|   |-3-|  |-3--|
   E E  E E  E E  E E  E E  E   q q Q  E E  E E E
|-----------------------------|-------------------|
|-10p8----8-12p8----8-10p8----|-8-8-8-10p8----8---|
|------10--------10--------10-|------------10-----|
|-----------------------------|-------------------|
|-----------------------------|-------------------|
|-----------------------------|-------------------|


      |-3--|    |-3--| |-3--|         |-3--|    |-3--|   |---3---|
   E  E E  E E  E E  E E  E E    E E  E E  E E  E E  E  +S    S  S
|-----------------------------|------------------------------------|
|----10p8----8-12p8----8-10p8-|----8-12p8----8-10p8----------13-13-|
|-10------10--------10--------|-10--------10--------10-(10)/-------|
|-----------------------------|------------------------------------|
|-----------------------------|------------------------------------|
|-----------------------------|------------------------------------|


   |------6-------|  |------6-------|    |------6-------|  |------6-------|
   E  E  E  E  E  E  E  E  E  E  E  E    E  E  E  E  E  E  E  E  E  E  E  E
|-------------------------------------|-------------------------------------|
|-17-15-13-17-15-13-17-15-13-17-15-13-|-17-15-13-17-15-13-17-15-13-17-15-13-|
|-------------------------------------|-------------------------------------|
|-------------------------------------|-------------------------------------|
|-------------------------------------|-------------------------------------|
|-------------------------------------|-------------------------------------|


   S  S  S  S  S  S  S  S  S  S  S  S  E  E
|-------------------------------------------|
|-13-13-13-13S15-15-15-15-17-17-17-17S18-18-|
|-------------------------------------------|
|-------------------------------------------|
|-------------------------------------------|
|-------------------------------------------|


                     \0.75/   \0.75/   \0.75/   \0.75/   \0.5/   \0.5/   \0.5/   \0.5/
   E  +E       +S   +S       +S       +S       +S       +S      +S      +S      +S      +S   E
|----------------------------------------------------------------------------------------------||
|-20-(20)b22==(20)-(20)-----(20)-----(20)-----(20)-----(20)----(20)----(20)----(20)----(20)r---||
|----------------------------------------------------------------------------------------------||
|----------------------------------------------------------------------------------------------||
|----------------------------------------------------------------------------------------------||
|----------------------------------------------------------------------------------------------||


 Bridge (Reprise)
  Am
  Gtr II
  Q     +E  E +H           E E E E +H
|-5-----(5)-5-(5)--------|-5-5-5-5-(5)----|
|-5-----(5)-5-(5)--------|-5-5-5-5-(5)----|
|-5-----(5)-5-(5)--------|-5-5-5-5-(5)----|
|-7-----(7)-7-(7)--------|-7-7-7-7-(7)----|
|-7-----(7)-7-(7)--------|-7-7-7-7-(7)----|
|-5-----(5)-5-(5)--------|-5-5-5-5-(5)----|
|
| Gtr I
| E +E   E  E +E  E +Q     E E E E  H
|------------------------|----------------|
|-----------5-(5)--------|-------5--------|
|--------5--------5-(5)--|-----5----5-----|
|-7-(7)------------------|-7-7------------|
|------------------------|----------------|
|------------------------|----------------|


  Gsus4                G
  Q   E E +H           E E E E +H
|-3---3-3-(3)--------|-3-3-3-3-(3)--------|
|-3---3-3-(3)--------|-3-3-3-3-(3)--------|
|-5---5-5-(5)--------|-4-4-4-4-(4)--------|
|-5---5-5-(5)--------|-5-5-5-5-(5)--------|
|-3---3-3-(3)--------|-5-5-5-5-(5)--------|
|-3---3-3-(3)--------|-3-3-3-3-(3)--------|
|
| E E E E +E  E +Q     E E E E +E  E +Q
|-------3-(3)--------|-------3-(3)--------|
|-----3-------3-(3)--|-----3-------3-(3)--|
|---5----------------|---4----------------|
|-5------------------|-5------------------|
|--------------------|--------------------|
|--------------------|--------------------|


  Am                                             Gsus4          G
  Q     +E  E +H           Q   +E  E +Q    E E   E Q  E Q  Q    E Q  E Q  Q
|-5-----(5)-5-(5)--------|-5---(5)-5-(5)---5---|-3-3--3-3--3--|-3-3--3-3--3--|
|-5-----(5)-5-(5)--------|-5---(5)-5-(5)---5---|-3-3--3-3--3--|-3-3--3-3--3--|
|-5-----(5)-5-(5)--------|-5---(5)-5-(5)---5---|-5-5--5-5--5--|-4-4--4-4--4--|
|-7-----(7)-7-(7)--------|-7---(7)-7-(7)---7---|-5-5--5-5--5--|-5-5--5-5--5--|
|-7-----(7)-7-(7)--------|-7---(7)-7-(7)---7---|-3-3--3-3--3--|-5-5--5-5--5--|
|-5-----(5)-5-(5)--------|-5---(5)-5-(5)---5---|-3-3--3-3--3--|-3-3--3-3--3--|
|
| E +E   E  E +E  E +Q     E E  E  E  E  E E E   W              W
|------------------------|---------------------|--------------|--------------|
|-----------5-(5)--------|-6-6--5--5-----------|--------------|--------------|
|--------5--------5-(5)--|------------5--5-7---|--------------|--------------|
|-7-(7)------------------|---------------------|--------------|--------------|
|------------------------|---------------------|--------------|--------------|
|------------------------|---------------------|--------------|--------------|


  F                                         G                        Gsus4  G
  Q     E E +H       Q     E E +H           Q     E E +H       Q   E E +Q   Q
|-1-----1-1-(1)----|-1-----1-1-(1)--------|-3-----3-3-(3)----|-3---3-3-(3)--3--|
|-1-----1-1-(1)----|-1-----1-1-(1)--------|-3-----3-3-(3)----|-3---3-3-(3)--3--|
|-2-----2-2-(2)----|-2-----2-2-(2)--------|-4-----4-4-(4)----|-4---4-5-(5)--4--|
|-3-----3-3-(3)----|-3-----3-3-(3)--------|-5-----5-5-(5)----|-5---5-5-(5)--5--|
|-3-----3-3-(3)----|-3-----3-3-(3)--------|-5-----5-5-(5)----|-5---5-3-(3)--5--|
|-1-----1-1-(1)----|-1-----1-1-(1)--------|-3-----3-3-(3)----|-3---3-3-(3)--3--|
|
| E +E  E E +H       E +E  E E  E  E +Q     E +E  E E +H       E E E E +Q   Q
|---------3-(3)----|---------3--3---------|---------3-(3)----|-------3-(3)-----|
|-------3----------|-------3-------3-(3)--|-------3----------|-----3--------3--|
|-5-(5)------------|-4-(4)----------------|-5-(5)------------|-4-4-------------|
|------------------|----------------------|------------------|-----------------|
|------------------|----------------------|------------------|-----------------|
|------------------|----------------------|------------------|-----------------|


  F                                         G
  Q     E E +H       Q     E E +H           E +Q   E +Q   Q    E E +Q   Q  q
|-1-----1-1-(1)----|-1-----1-1-(1)--------|-3-(3)--3-(3)--3--|-3-3-(3)--3--3--||
|-1-----1-1-(1)----|-1-----1-1-(1)--------|-3-(3)--3-(3)--3--|-3-3-(3)--3--3--||
|-2-----2-2-(2)----|-2-----2-2-(2)--------|-4-(4)--4-(4)--4--|-4-4-(4)--4--4--||
|-3-----3-3-(3)----|-3-----3-3-(3)--------|-5-(5)--5-(5)--5--|-5-5-(5)--5--5--||
|-3-----3-3-(3)----|-3-----3-3-(3)--------|-5-(5)--5-(5)--5--|-5-5-(5)--5--5--||
|-1-----1-1-(1)----|-1-----1-1-(1)--------|-3-(3)--3-(3)--3--|-3-3-(3)--3--3--||
|
| E +E  E E +H       E +E  E E  E  E +Q     W                  W
|---------3-(3)----|---------3--3---------|------------------|----------------||
|-------3----------|-------3-------3-(3)--|------------------|----------------||
|-5-(5)------------|-4-(4)----------------|------------------|----------------||
|------------------|----------------------|------------------|----------------||
|------------------|----------------------|------------------|----------------||
|------------------|----------------------|------------------|----------------||


   Outro
    Am
    Q     +E  E +H           E E E Q     E q
||--5-----(5)-5-(5)--------|-5-5-5-5-----5-5---|
||o-5-----(5)-5-(5)--------|-5-5-5-5-----5-5---|
||--5-----(5)-5-(5)--------|-5-5-5-5-----5-5---|
||--7-----(7)-7-(7)--------|-7-7-7-7-----7-7---|
||o-7-----(7)-7-(7)--------|-7-7-7-7-----7-7---|
||--5-----(5)-5-(5)--------|-5-5-5-5-----5-5---|
|
|   E +E   E  E +E  E +Q     E E E E +E  E E E
||-------------------------|-------------------|
||o-----------5-(5)--------|-------5-(5)-------|
||---------5--------5-(5)--|-----5---------5---|
||--7-(7)------------------|-7-7---------7-----|
||o------------------------|-------------------|
||-------------------------|-------------------|


                      1.,2.                     3.
  Gsus4                G                         G
  Q   E E +H           E Q     Q     E q    3x   E Q     E +H
|-3---3-3-(3)--------|-3-3-----3-----3-3----||-|-3-3-----3-(3)----||
|-3---3-3-(3)--------|-3-3-----3-----3-3---o||-|-3-3-----3-(3)----||
|-5---5-5-(5)--------|-4-4-----4-----4-4----||-|-4-4-----4-(4)----||
|-5---5-5-(5)--------|-5-5-----5-----5-5----||-|-5-5-----5-(5)----||
|-3---3-3-(3)--------|-5-5-----5-----5-5---o||-|-5-5-----5-(5)----||
|-3---3-3-(3)--------|-3-3-----3-----3-3----||-|-3-3-----3-(3)----||
|
| E E E E +E  E +Q     E E +E  E +E  E E E  3x   E E +E  E +H
|-------3-(3)--------|---------3-(3)--------||-|---------3-(3)----||
|-----3-------3-(3)--|-----------------3---o||-|------------------||
|---5----------------|---4-(4)-------4------||-|---4-(4)----------||
|-5------------------|-5--------------------||-|-5----------------||
|--------------------|---------------------o||-|------------------||
|--------------------|----------------------||-|------------------||


  A5
  Gtrs I, II
  |--3---|               |-4:3-|   |----6----|
  E +E  +E  E H    +E    E E E E E E E E E E E
|----------------------|-----------------------|
|----------------------|-----------------------|
|-2-(2)-(2)---2----(2)-|-------2p0-4p2p0-------|
|-2-(2)-(2)---2----(2)-|-0h2h4-----------4p2p0-|
|-0-(0)-(0)---0----(0)-|-----------------------|
|----------------------|-----------------------|


                         H.=H                Q=164
  A5
  |--3---|               |-4:3-|   |----6----|
  E +E  +E  E H    +E    E E E E E E E E E E E
|----------------------|------------------------|
|----------------------|------------------------|
|-2-(2)-(2)---2----(2)-|-------2p0-4p2p0--------|
|-2-(2)-(2)---2----(2)-|-0h2h4-----------4p2p0--|
|-0-(0)-(0)---0----(0)-|------------------------|
|----------------------|------------------------|


  Q=186
  A5
  W          +W           +W           +W           +W           +W
|----------|------------|------------|------------|------------|--------*|
|----------|------------|------------|------------|------------|--------*|
|-2--------|-(2)--------|-(2)--------|-(2)--------|-(2)--------|-(2)----*|
|-2--------|-(2)--------|-(2)--------|-(2)--------|-(2)--------|-(2)----*|
|-0--------|-(0)--------|-(0)--------|-(0)--------|-(0)--------|-(0)----*|
|----------|------------|------------|------------|------------|--------*|


Duration Legend
---------------
W - whole; H - half; Q - quarter; E - 8th; S - 16th; T - 32nd; X - 64th; a - acciaccatura
+ - note tied to previous; . - note dotted; .. - note double dotted
Uncapitalized letters represent notes that are staccato (1/2 duration)
Irregular groupings are notated above the duration line
Duration letters will always appear directly above the note/fret number it represents the
duration for.  Duration letters with no fret number below them represent rests.  Multi-
bar rests are notated in the form Wxn, where n is the number of bars to rest for.  Low
melody durations appear below the staff

Tablature Legend
----------------
 h   - hammer-on
 p   - pull-off
 b   - bend
 pb  - pre-bend
 r   - bend release (if no number after the r, then release immediately)
 /\  - slide into or out of (from/to "nowhere")
 s   - legato slide
 S   - shift slide
  - natural harmonic
[n]  - artificial harmonic
n(n) - tapped harmonic
 ~   - vibrato
 tr  - trill
 T   - tap
 TP  - trem. picking
 PM  - palm muting
\n/  - tremolo bar dip; n = amount to dip
 \n  - tremolo bar down
 n/  - tremolo bar up
/n\  - tremolo bar inverted dip
 =   - hold bend; also acts as connecting device for hammers/pulls
 <>  - volume swell (louder/softer)
 x   - on rhythm slash represents muted slash
 o   - on rhythm slash represents single note slash

Misc Legend
-----------
 |  - bar
||  - double bar
||o - repeat start
o|| - repeat end
*|  - double bar (ending)
 :  - bar (freetime)
 $  - Segno
 &  - Coda
Tempo markers -  = BPM(8/16=s8/s16), where s8 = swing 8ths, s16 = swing 16ths

Lyrics:

A hot and windy august afternoon
Has the trees in constant motion
With a flash of silver leaves
As theyíre rocking in the breeze

The boy lies in the grass with one blade
Stuck between his teeth
A vague sensation quickens
In his young and restless heart
And a bright and nameless vision
Has him longing to depart

You move me ---
You move me ---
With your buildings and your eyes
Autumn woods and winter skies
You move me ---
You move me ---
Open sea and city lights
Busy streets and dizzy heights
You call me ---
You call me ---

The fawn-eyed girl with sun-browned legs
Dances on the edge of his dream
And her voice rings in his ears
Like the music of the spheres

The boy lies in the grass, unmoving
Staring at the sky
His mother starts to call him
As a hawk goes soaring by
The boy pulls down his baseball cap
And covers up his eyes

You move me ---
You move me ---
With your buildings and your eyes
Autumn woods and winter skies
You move me ---
You move me ---
Open sea and city lights
Dizzy streets and busy heights
You call me ---
You call me ---

Too many hands on my time
Too many feelings ---
Too many things on my mind
When I leave I donít know
What Iím hoping to find
When I leave I donít know
What Iím leaving behind...

When I leave I donít know
What Iím hoping to find
When I leave I donít know
What Iím leaving behind...


***************************************************************************************
* Generated using Power Tab Editor by Brad Larsen - http://powertab.guitarnetwork.org *
***************************************************************************************

Tap to rate this tab
 
# A B C D E F G H I J K L M N O P Q R S T U V W X Y Z