Song name
# A B C D E F G H I J K L M N O P Q R S T U V W X Y Z

Rush - Headlong Flight tab

e-|--------------------------------------------------------------------|
B-|-o---------------------------------------------------------------o--|
G-|--------------------------------------------------------------------|
D-|-------------------------5-7-5--------------------------------------|
A-|-o---7-5------5-7-5------------7--5-7-5------5-7-5---5-----------o--|
E-|---------7--7-------7--7----------------7--7-------7---7-5-7-5-3----|


e-|-------------------------------------------------------------------------|
B-|-o--------------------------------------------------------------------o--|
G-|----------------------7--7-7---5-5-5--------------------7-9-9-9-9-9------|
D-|----------------------7--7-7---5-5-5--------------------7-9-9-9-9-9------|
A-|-o--------------------5--5-5---3-3-3--------------------5-7-7-7-7-7---o--|
E-|----0-0-0-3-0-0-5-0-0-----------------0-0-0-3-0-0-5-0-0------------------|


e-0--x-0--x--0---0--0----0--x-0--x--0---0--0----7-7-7-7--7-7-7-7-7--7-7-7-7-7-|
B-8--x-7--x--8---8--8----8--x-7--x--8---8--8----8-8-8-8--8-8-8-8-8--8-8-8-7-7-|
G-9--x-9--x--9---9--9----9--x-9--x--9---9--9----9-9-9-9--9-9-9-9-9--9-9-9-9-9-|
D-10-x-10-x-10---10-10---10-x-10-x-10---10-10---------------------------------|
A-10---10---10---10-10---10---10---10---10-10---------------------------------|
E-----------------------------------------------------------------------------|


e---7-7-7-7--7-7-7-7-7--7-7-7-7-7---|
B---8-8-8-8--8-8-8-8-8--8-8-8-7-7---|
G---9-9-9-9--9-9-9-9-9--9-9-9-9-9---|
D-----------------------------------|
A-----------------------------------|
E-----------------------------------|


e-0--0--0---0-0-00------0--0--0---0-0-00-------7-7-7-7--7-7-7-7-7--7-7-7-7-7-|
B-5--5--5---5-5-44------5--5--5---5-5-44-------8-8-8-8--8-8-8-8-8--8-8-8-7-7-|
G-6--6--6---6-6-66------6--6--6---6-6-66-------9-9-9-9--9-9-9-9-9--9-9-9-9-9-|
D-7--7--7---7-7-77------7--7--7---7-7-77-------------------------------------|
A-7--7--7---7-7-77------7--7--7---7-7-77-------------------------------------|
E----------------------------------------------------------------------------|


e---7-7-7-7--7-7-7-7-7--7-7-7-7-7---|
B---8-8-8-8--8-8-8-8-8--8-8-8-7-7---|
G---9-9-9-9--9-9-9-9-9--9-9-9-9-9---|
D-----------------------------------|
A-----------------------------------|
E-----------------------------------|

e----------------------------------------------------------------------------|
B----------------------------------------------------------------------------|
G----------------------------------------------------------------------------|
D--2-2-2-2--2-2-2-2-2--2-2-2-2-2---------------------------------------------|
A--2-2-2-2--2-2-2-2-2--2-2-2-2-2---------------------------------------------|
E--0-0-0-0--0-0-0-0-0--0-0-0-0-0---------------------------------------------|

e-|-------------------------------------------------------------------------|
B-|-o--------------------------------------------------------------------o--|
G-|----------------------7--7-7---5-5-5--------------------7-9-9-9-9-9------|
D-|----------------------7--7-7---5-5-5--------------------7-9-9-9-9-9------|
A-|-o--------------------5--5-5---3-3-3--------------------5-7-7-7-7-7---o--|
E-|----0-0-0-3-0-0-5-0-0-----------------0-0-0-3-0-0-5-0-0------------------|



e-0--x-0--x--0---0--0----0--x-0--x--0---0--0----0--0--0---0-0-00---|
B-8--x-7--x--8---8--8----8--x-7--x--8---8--8----5--5--5---5-5-44---|
G-9--x-9--x--9---9--9----9--x-9--x--9---9--9----6--6--6---6-6-66---|
D-10-x-10-x-10---10-10---10-x-10-x-10---10-10---7--7--7---7-7-77---|
A-10---10---10---10-10---10---10---10---10-10---7--7--7---7-7-77---|
E------------------------------------------------------------------|

e-0--0--0---0-0-00--------------------------------------|
B-5--5--5---5-5-44--------------------------------------|
G-6--6--6---6-6-66--------------------------------------|
D-7--7--7---7-7-77---2-2-2-2---2-2-2-2-2---2-2-2-2-2----|
A-7--7--7---7-7-77---2-2-2-2---2-2-2-2-2---2-2-2-2-2----|
E--------------------0-0-0-0---0-0-0-0-0---0-0-0-0-0----|

e-7-7-7-7---9-7---0-0-0-0--0-0---0--0--0--0---0--0----4-4-4-4-6-6-6-6---|
B-9-9-7-9---7-9---7-7-9-7--7-9---8--8--7--8---7--8----4-4-4-4-6-6-6-6---|
G-9-9-9-9---9-9---8-8-8-8--8-8---9--9--9--9---9--9----5-5-5-5-7-7-7-7---|
D-----------------9-9-9-9--9-9---10-10-10-10--10-10---6-6-6-6-8-8-8-8---|
A-----------------------------------------------------------------------|
E-----------------------------------------------------------------------|

e-------------------------------------------------------------|
B-------------------------------------------------------------|
G----------------4-4-4-4--4-4---5-5-5-5--5-5---2-2-2-2--2-2---|
D-2-2-2-2--2-2---4-4-4-4--4-4---5-5-5-5--5-5---2-2-2-2--2-2---|
A-2-2-2-2--2-2---2-2-2-2--2-2---3-3-3-3--3-3---0-0-0-0--0-0---|
E-0-0-0-0--0-0------------------------------------------------|

----------------------------------------------------------------|
----------------------------------------------------------------|
---------------4-4-4-4--4-4---5-5-5-5--5-5----------------------|
2-2-2-2--2-2---4-4-4-4--4-4---5-5-5-5--5-5----6-6-6-6-8-8-8-8---|
2-2-2-2--2-2---2-2-2-2--2-2---3-3-3-3--3-3----6-6-6-6-8-8-8-8---|
0-0-0-0--0-0----------------------------------4-4-4-4-6-6-6-6---|


e-|-------------------------------------------------------------------------|
B-|-o---------------------------------------------------------------------o-|
G-|----------------------7--7-7---5-5-5---------------------7-9-9-9-9-9-----|
D-|----------------------7--7-7---5-5-5---------------------7-9-9-9-9-9-----|
A-|-o--------------------5--5-5---3-3-3---------------------5-7-7-7-7-7---o-|
E-|----0-0-0-3-0-0-5-0-0------------------0-0-0-3-0-0-5-0-0-----------------|

e---0--x-0--x--0---0--0------0--x-0--x--0---0--0--------|
B---8--x-7--x--8---8--8------8--x-7--x--8---8--8--------|
G---9--x-9--x--9---9--9------9--x-9--x--9---9--9--------|
D---10-x-10-x-10---10-10-----10-x-10-x-10---10-10-------|
A---10---10---10---10-10-----10---10---10---10-10-------|
E-------------------------------------------------------|

e---7-7-7-7--7-7-7-7-7--7-7-7-7-7----7-7-7-7--7-7-7-7-7--7-7-7-7-7----|
B---8-8-8-8--8-8-8-8-8--8-8-8-7-7----8-8-8-8--8-8-8-8-8--8-8-8-7-7----|
G---9-9-9-9--9-9-9-9-9--9-9-9-9-9----9-9-9-9--9-9-9-9-9--9-9-9-9-9----|
D---------------------------------------------------------------------|
A---------------------------------------------------------------------|
E---------------------------------------------------------------------|



e-0--0--0---0-0-00------0--0--0---0-0-00----|
B-5--5--5---5-5-44------5--5--5---5-5-44----|
G-6--6--6---6-6-66------6--6--6---6-6-66----|
D-7--7--7---7-7-77------7--7--7---7-7-77----|
A-7--7--7---7-7-77------7--7--7---7-7-77----|
E-------------------------------------------|

e---7-7-7-7--7-7-7-7-7--7-7-7-7-7----7-7-7-7--7-7-7-7-7--7-7-7-7-7----|
B---8-8-8-8--8-8-8-8-8--8-8-8-7-7----8-8-8-8--8-8-8-8-8--8-8-8-7-7----|
G---9-9-9-9--9-9-9-9-9--9-9-9-9-9----9-9-9-9--9-9-9-9-9--9-9-9-9-9----|
D---------------------------------------------------------------------|
A---------------------------------------------------------------------|
E---------------------------------------------------------------------|

e----------------------------------------------------------------------------|
B----------------------------------------------------------------------------|
G----------------------------------------------------------------------------|
D--2-2-2-2--2-2-2-2-2--2-2-2-2-2--2-2-2-2--2-2-2-2-2--2-2-2-2-2--------------|
A--2-2-2-2--2-2-2-2-2--2-2-2-2-2--2-2-2-2--2-2-2-2-2--2-2-2-2-2--------------|
E--0-0-0-0--0-0-0-0-0--0-0-0-0-0--0-0-0-0--0-0-0-0-0--0-0-0-0-0--------------|

e-------------------------------------------------------------|
B-------------------------------------------------------------|
G----------------4-4-4-4--4-4---5-5-5-5--5-5---2-2-2-2--2-2---|
D-2-2-2-2--2-2---4-4-4-4--4-4---5-5-5-5--5-5---2-2-2-2--2-2---|
A-2-2-2-2--2-2---2-2-2-2--2-2---3-3-3-3--3-3---0-0-0-0--0-0---|
E-0-0-0-0--0-0------------------------------------------------|

----------------------------------------------------------------|
----------------------------------------------------------------|
---------------4-4-4-4--4-4---5-5-5-5--5-5----------------------|
2-2-2-2--2-2---4-4-4-4--4-4---5-5-5-5--5-5----6-6-6-6-8-8-8-8---|
2-2-2-2--2-2---2-2-2-2--2-2---3-3-3-3--3-3----6-6-6-6-8-8-8-8---|
0-0-0-0--0-0----------------------------------4-4-4-4-6-6-6-6---|


e----------------------------------------------------------------------|
B----------------------------------------------------------------------|
G----------------------------------------------------------------------|
D----------------------------------------------------------------------|
A--5-7-5-7-5------5-7-5------5-7-5-7-5------5-7-5------5-7-5-7-5-7-5---|
E------------0--0-------0--0-----------0--0-------0--0---------------0-|

e-----------------------------------------------------------|
B-----------------------------------------------------------|
G-----------------------------------------------------------|
D-----------------------------------------------------------|
A---5-7-5------5-7-5-7-5-7-5------5-7-5------5-7-5-7-5------|
E-0-------0--0---------------0--0-------0--0-----------0--0-|

e-------------------------------------------------------------------|
B-------------------------------------------------------------------|
G-------------------------------------------------------------------|
D-------------------------------------------------------------------|
A-5-7-5------5-7-5-7-5-7-5-----5-7-5------5-7-5-7-5------5-7-5------|
E-------0--0--------------0--0-------0--0-----------0--0-------0--0-|

e---------------------------------------------------------------------|
B---------------------------------------------------------------------|
G-------------------7--7-7---5-5-5---------------------7-9-9-9-9-9----|
D-------------------7--7-7---5-5-5---------------------7-9-9-9-9-9----|
A-------------------5--5-5---3-3-3---------------------5-7-7-7-7-7----|
E-0-0-0-3-0-0-5-0-0------------------0-0-0-3-0-0-5-0-0----------------|

e-|----7-7-7-7--7-7-7-7-7--7-7-7-7-7----7-7-7-7--7-7---|
B-|-o--8-8-8-8--8-8-8-8-8--8-8-8-7-7----8-8-8-8--8-8-o-|
D-|----9-9-9-9--9-9-9-9-9--9-9-9-9-9----9-9-9-9--9-9---|
G-|-o------------------------------------------------o-|
A-|----------------------------------------------------|
E-|----------------------------------------------------|

e--7-7-7-7--7-7-7-7-7--7-7-7-7-7----7-7-7-7--7-7-7-7-7-7-7-7-7-7-7-|
B--8-8-8-8--8-8-8-8-8--8-8-8-7-7----8-8-8-8--8-8-8-8-8-8-8-8-8-8-8-|
D--9-9-9-9--9-9-9-9-9--9-9-9-9-9----9-9-9-9--9-9-9-9-9-9-9-9-9-9-9-|
G------------------------------------------------------------------|
A------------------------------------------------------------------|
E------------------------------------------------------------------|

[epic] drum fill

e-|------------------------------------------------------------------|-------|
B-|-o--------------------------------------------------------------o-|-------|
G-|------------------------------------------------------------------|-------|
D-|------------------------------------------------------------------|--2~~~-|
A-|-o-5-7-5------5-7-5------5-7-5----5-7-5------5-7-5------5-7-5---o-|--2~~~-|
E-|---------0--0-------0--0----------------0--0-------0--0-----------|--0~~~-|

and after the solo:

e-|-------------------------------------------------------------------------|
B-|-o---------------------------------------------------------------------o-|
G-|----------------------7--7-7---5-5-5---------------------7-9-9-9-9-9-----|
D-|----------------------7--7-7---5-5-5---------------------7-9-9-9-9-9-----|
A-|-o--------------------5--5-5---3-3-3---------------------5-7-7-7-7-7---o-|
E-|----0-0-0-3-0-0-5-0-0------------------0-0-0-3-0-0-5-0-0-----------------|

e---0--x-0--x--0---0--0------0--x-0--x--0---0--0--------|
B---8--x-7--x--8---8--8------8--x-7--x--8---8--8--------|
G---9--x-9--x--9---9--9------9--x-9--x--9---9--9--------|
D---10-x-10-x-10---10-10-----10-x-10-x-10---10-10-------|
A---10---10---10---10-10-----10---10---10---10-10-------|
E-------------------------------------------------------|

e---7-7-7-7--7-7-7-7-7--7-7-7-7-7----7-7-7-7--7-7-7-7-7--7-7-7-7-7----|
B---8-8-8-8--8-8-8-8-8--8-8-8-7-7----8-8-8-8--8-8-8-8-8--8-8-8-7-7----|
G---9-9-9-9--9-9-9-9-9--9-9-9-9-9----9-9-9-9--9-9-9-9-9--9-9-9-9-9----|
D---------------------------------------------------------------------|
A---------------------------------------------------------------------|
E---------------------------------------------------------------------|



e-0--0--0---0-0-00------0--0--0---0-0-00----|
B-5--5--5---5-5-44------5--5--5---5-5-44----|
G-6--6--6---6-6-66------6--6--6---6-6-66----|
D-7--7--7---7-7-77------7--7--7---7-7-77----|
A-7--7--7---7-7-77------7--7--7---7-7-77----|
E-------------------------------------------|

e---7-7-7-7--7-7-7-7-7--7-7-7-7-7----7-7-7-7--7-7-7-7-7--7-7-7-7-7----|
B---8-8-8-8--8-8-8-8-8--8-8-8-7-7----8-8-8-8--8-8-8-8-8--8-8-8-7-7----|
G---9-9-9-9--9-9-9-9-9--9-9-9-9-9----9-9-9-9--9-9-9-9-9--9-9-9-9-9----|
D---------------------------------------------------------------------|
A---------------------------------------------------------------------|
E---------------------------------------------------------------------|

e---------------------------------|
B---------------------------------|
G---------------------------------|
D--2-2-2-2--2-2-2-2-2--2-2-2-2-2--|
A--2-2-2-2--2-2-2-2-2--2-2-2-2-2--|
E--0-0-0-0--0-0-0-0-0--0-0-0-0-0--|


e-7-7-7-7---9-7---0-0-0-0--0-0---0--0--0--0---0--0----0-0-0-0--0-----|
B-9-9-7-9---7-9---7-7-9-7--7-9---8--8--7--8---7--8----5-5-4-5--4-2~~-|
G-9-9-9-9---9-9---8-8-8-8--8-8---9--9--9--9---9--9----6-6-6-6--6-----|
D-----------------9-9-9-9--9-9---10-10-10-10--10-10---7-7-7-7--7-----|
A--------------------------------------------------------------------|
E--------------------------------------------------------------------|

e----------------------------------------------------------------|
B----------------------------------------------------------------|
G----------------4-4-4-4--4-4---5-5-5-5--5-5---------------------|
D-2-2-2-2--2-2---4-4-4-4--4-4---5-5-5-5--5-5----6-6-6-6-8-8-8-8--|
A-2-2-2-2--2-2---2-2-2-2--2-2---3-3-3-3--3-3----6-6-6-6-8-8-8-8--|
E-0-0-0-0--0-0----------------------------------4-4-4-4-6-6-6-6--|


e---------------------------------------------------------------|
B---------------------------------------------------------------|
G------------------4-4-4-4--4-4---5-5-5-5--5-5---2-2-2-2--2-2---|
D---2-2-2-2--2-2---4-4-4-4--4-4---5-5-5-5--5-5---2-2-2-2--2-2---|
A---2-2-2-2--2-2---2-2-2-2--2-2---3-3-3-3--3-3---0-0-0-0--0-0---|
E---0-0-0-0--0-0------------------------------------------------|

e----------------------------------------------------------------|
B----------------------------------------------------------------|
G----------------4-4-4-4--4-4---5-5-5-5--5-5---------------------|
D-2-2-2-2--2-2---4-4-4-4--4-4---5-5-5-5--5-5----6-6-6-6-8-8-8-8--|
A-2-2-2-2--2-2---2-2-2-2--2-2---3-3-3-3--3-3----6-6-6-6-8-8-8-8--|
E-0-0-0-0--0-0----------------------------------4-4-4-4-6-6-6-6--|


e-------------------------------------------------------------------------------|
B-------------------------------------------------------------------------------|
G----------------4-4-4-4--4-4---5-5-5-5--5-5---2-2-2-2--2-2---------------------|
D-2-2-2-2--2-2---4-4-4-4--4-4---5-5-5-5--5-5---2-2-2-2--2-2----2222--2-2-2-2222-|
A-2-2-2-2--2-2---2-2-2-2--2-2---3-3-3-3--3-3---0-0-0-0--0-0----2222--2-2-2-2222-|
E-0-0-0-0--0-0-------------------------------------------------0000--0-0-0-0000-|
Tap to rate this tab
# A B C D E F G H I J K L M N O P Q R S T U V W X Y Z