Song name
# A B C D E F G H I J K L M N O P Q R S T U V W X Y Z

Rush - Wish Them Well tab

This is my first tab so feel free to make improvements.


Riff 1
"All    do is....... well..."
e|5-------------------------1-------3-------------------------------------------------|
B|5------7-8-7-------5------1-------3-------------------------------------------------|
G|6------7-7-7-------5------2-------4-------------------------------------------------|
D|7------7-7-7-------5------3-------5-------------------------------------------------|
A|7------5-5-5-------3------3-------5-------------------------------------------------|
E|5-------------------------1-------3-------------------------------------------------|

Riff 2

e|--------------------------------------------------------------------------------------|
B|--------------------------------------------------------------------------------------|
G|----4----5---7~----4----5---7--------12-----------------------------------------------|
D|--4-----5---7----4----5----7----9---12------------------------------------------------|
A|-2----3----5----2----3----5----7---10-------------------------------------------------|
E|--------------------------------------------------------------------------------------|


Riff 3 "Spirits turned bitter by the poison of envy..."

e|-0----0--------0-----------------------------------------------------------------|
B|-0----0--------0-----------------------------------------------------------------|
G|-4----9--------1-----------------------------------------------------------------|
D|-4----9---6----2-----------------------------------------------------------------|
A|-2----7---6----2-----------------------------------------------------------------|
E|----------4----0-----------------------------------------------------------------|


Riff 4 "The ones who've done you wrong"

e|-1----1----1----5--------------------------------------------------------------|
B|-1----1----1----5--------------------------------------------------------------|
G|-2----3----3----7--------------------------------------------------------------|
D|-3----3----3----7--------------------------------------------------------------|
A|-3----1----1----5--------------------------------------------------------------|
E|-1----1----1----5--------------------------------------------------------------|


Structure:

Riff 1 3 times

Riff 2 2 times

Riff 1 2 times

Riff 3 3 times

Riff 2 3 times

Riff 1 3 times

Riff 3 2 times

Riff 2 3 times

Solo

starts something like this

e|-----------------------------------------------------------------------------------|
B|-----------------------------------------------------------------------------------|
G|-2~--------------------------------------------------------------------------------|
D|-----0-2~--2-4--0------------------------------------------------------------------|
A|-----------------------------------------------------------------------------------|
E|-----------------------------------------------------------------------------------|




Riff 4 4 times

Riff 2 4 times (don't hit last 3 notes)

Riff 1 Repeat until fade out.
Tap to rate this tab
# A B C D E F G H I J K L M N O P Q R S T U V W X Y Z