Song name
# A B C D E F G H I J K L M N O P Q R S T U V W X Y Z

Rush - The Garden tab

-------------------------------------------------------------------------------
                             The Garden  Rush
-------------------------------------------------------------------------------
Tabbed by: Terry Kay
E-mail:

Tuning:EADGBe

Intro:

e|-----------------------------------------------------------------------------|
B|-----------------------------------------------------------------------------|
G|-----------------------------------------------------------------------------|
D|---7---8---7---10-----7---8---7-----7---8---7---3---3---3---3----------------|
A|-8---8---8---8------8---8---8-----8---8---8---8---4---4---4---4--------------|
E|-----------------------------------------------------------------------------|


e|---------------------------------------------------------------------------|
B|---------------------------------------------------------------------------|
G|---------------------------------------------------------------------------|
D|---7---8---7---10-----7---8---7-----7---8---7---5---5---5---5--------------|
A|-8---8---8---8------8---8---8-----8---8---8---8---6---6---6---6------------|
E|---------------------------------------------------------------------------|

Chords:

Strum

F

e|--1--|
B|--1--|
G|--2--|
D|--3--|
A|--3--|
E|--1--|

A# sus2sus4

e|--1--|
B|--1--|
G|--3--|
D|--1--|
A|--1--|
E|--x--|

A# sus2

e|--1--|
B|--1--|
G|--2--|
D|--2--|
A|--1--|
E|--1--|

F

e|--1--|
B|--1--|
G|--2--|
D|--3--|
A|--3--|
E|--1--|


Riff:


e|-----------------------------------------------------------------|
B|----3-4--3--3----3-4--3---3-----3-4--3---3----3-4--3---3---------|
G|----------0-------------0--------------0-------------0-----------|
D|-----------------------------------------------------------------|
A|-----------------------------2--------------2--------------------|
E|--3------------3-------------------------------------------------|

e|-----------------------------------------------------------------|
B|----3-4--3--3----3-4--3---3-----3-4--3---3----3-4--3---3---------|
G|----------0-------------0--------------0-------------0-----------|
D|------------------------------1-------------1--------------------|
A|--3-----------3--------------------------------------------------|
E|-----------------------------------------------------------------|

e|-----------------------------------------------------------------|
B|----3-4--3--3----3-4--3---3-----3-4--3---3----3-4--3---3---------|
G|----------0-------------0--------------0-------------0-----------|
D|-----------------------------------------------------------------|
A|-----------------------------2--------------2--------------------|
E|--3------------3-------------------------------------------------|

e|-----------------------------------------------------------------|
B|----3-4--3--3----3-4--3---3-----3-4--3---3----3-4--3---3---------|
G|----------0-------------0--------------0-------------0-----------|
D|--1-----------0--------------------------------------------------|
A|------------------------------3--------------1-------------------|
E|-----------------------------------------------------------------|
Tap to rate this tab
# A B C D E F G H I J K L M N O P Q R S T U V W X Y Z