Song name
# A B C D E F G H I J K L M N O P Q R S T U V W X Y Z

Rush - Friendless Departure tab

This is a cool band that I just found there name is sideshow.
There an acoustical band. You play this the whole song. But i forget the lyrics.

    D
E---2--------2---------2----------------
B------3--------3-----------------------
G---------2---------2-------------------
D---0-----------------------------------
A---------------------------------------
E---------------------------------------
   C2
E--0-----------0------------0-----------
B-----3-------------3-------------------
G---------2-------------2---------------
D---------------------------------------
A--3------------------------------------
E---------------------------------------

  G/D
E-0-----------0-----------0-----------
B-----3-----------3-------------------
G---------2------------2--------------
D-------------------------------------REPEAT the whole song through the end.
A-------------------------------------
E-3-----------------------------------
  D         C2          G/D
XX0232    x30230       300230
Tap to rate this tab
# A B C D E F G H I J K L M N O P Q R S T U V W X Y Z