Guitaretab - guitar tabs
Song name
# A B C D E F G H I J K L M N O P Q R S T U V W X Y Z

Rush - I Think Im Going Bald tab

----------------------------------------------------------------------------
                    "I THINK I'M GOING BALD" - Rush
----------------------------------------------------------------------------
[ Tab from: http://www.guitaretab.com/r/rush/58255.html ]
Kenneth Dale Harris IV
kenny@kdharris.net
Standard Tuning
Main Riff
  A A     A     A     D G       Pre-chorus
e-----------------------2-3-|-2-2-2---3---3-3-|
B-2-2-----2-----2-2-----3-0-|-3-3-3---3---3-3-|
G-2-2-----2-----2-2-----2-0-|-2-2-2---0---0-0-|
D-2-2-----2-----2-2-----0-0-|-0-0-0--0---0--0-|
A-0-0-3h4-0-----0-0-3h4---2-|-------3---2---2-|
E-----------3h4-----------3-|---------------3-|
 Chorus 2X
e---------|-------------|------------------------|
B---2-2---|-------------|---2-2------------------|
G---2-2---|-------------|---2-2------------------|
D-2-2-2---|-------2-----|-2-2-2---------------2--|
A-2-0-0---|-----2-------|-2-0-0---2-1-0-----2----|
E-0-----3-|-3-4-----3-4-|-0-----3-------3-4------|
Solo 
e--------------------|-------------|--------------------------------|
B-----5-8p5--8p5-----|-------------|--------------------------------|
G-7^9------7----7-5-7|-7^9-5h7p5---|----5-5-7^9-7h9p7-5-------------|
D--------------------|-----------7-|-5h7-7-----------7-7-5----------|
A--------------------|-------------|----------------------7-6-5-----|
E--------------------|-------------|---------------------------/8\/5|

e-------8-8^10-9^11-10^12-11^13-12^14--------|---------------------|
B---8h10------------------------------5-5-8--|-8p5-8p5-8p5-8p5-5-8-|
G-/9-----------------------------------------|----5---5---5---5----|
D--------------------------------------------|---------------------|
A--------------------------------------------|---------------------|
E--------------------------------------------|---------------------|

e----------------|  The solo at the end is pretty much a free spot for your
B----------------|  own solo. Alex just boogies in the key of "A" 
G-7^9^7-5h7p5----|  (Penatonic) and "E" (Penatonic).
D------------7---|  This song is a good Jam for new guitarists.
A----------------|  
E----------------|

^ - bend
h - hammer
p - pull off
/ - slide up
\ - slide down
Related for I Think Im Going Bald tab