Song name
# A B C D E F G H I J K L M N O P Q R S T U V W X Y Z

Rush - Roll The Bones Live tab

----------------------------------------------------------------------------
			     Rollthe bones live by rush
----------------------------------------------------------------------------
Tabbed by:doodo62
Email:doodoo62@hotmail.co.uk

Tuning:standard
This is my second rush tab woooo. Im on a role.its based on the live RUSH in rio
solo.Ive never actually heard the proper solo of the origanal album so i had trouble
when learning from the tab so i did my own tab of the live one.

e|-----------------------------------------------------------------------|
B|-17b19r17-15-17-15-15---12-13-15-13-12----12b------8h10-------8h10-----|
G|---------------------------------------14------7-9------9p7h9------9---|
D|---------------------------------------------------------------------7-|
A|-----------------------------------------------------------------------|
E|-----------------------------------------------------------------------|


e|--------------8-7-10-8-10-12----12----12----12~-------------12--13-15b-|
B|------7hh8h10---------------------12----12----10s12-12h13h15--15-------|
G|---7h9-----------------------------------------------------------------|
D|-9---------------------------------------------------------------------|
A|-----------------------------------------------------------------------|
E|-----------------------------------------------------------------------|


e|--20b22-22-22-22r20-------------------------------------------|
B|--------------------20p19p17-19-19b21r19---17--17-------------|
G|--------------------------------------------------------------|
D|--------------------------------------------------------------|
A|--------------------------------------------------------------|
E|--------------------------------------------------------------|

Thats about it.Please rate good as short as it is this took along time to make.Cya!
Tap to rate this tab
 
# A B C D E F G H I J K L M N O P Q R S T U V W X Y Z