Song name
# A B C D E F G H I J K L M N O P Q R S T U V W X Y Z

Rush - Temples Of Syrinx tab

     Rhy. Fig. 1                                               To Riff A
E------------------------------------------------------------:|-----
B------------------------------------------------------------:|-----  x 4
G------------------------------------------------------------:|----- 
D------------------------------------------------------------:|-----
A-------------------------------------3----------------3-----:|----5 < 1st and
E---0----5----5-5----0----5----5-5---------3----3-3---------3:|-----   3rd time

     Riff A
E|------------------2----2-------3----3-------5----5---7:| 
B|------------------2----2-------3----3-------5----5---7:|
G|------------------------------------------------------:|x4
D|------------------------------------------------------:|
A|------------------------------------------------------:|to rhy fig 2
E|--0-2-3-5-3-0-2-----2------3-----3------5-----5------7:|


Rhy fig 2 is a chords B then D then G and repeated.
Then back to rhy fig 1.

Tap to rate this tab
# A B C D E F G H I J K L M N O P Q R S T U V W X Y Z