Song name
# A B C D E F G H I J K L M N O P Q R S T U V W X Y Z

Rush - You Cant Fight It tab

Rush - You Can't Fight It


  Intro/Verse            x2
e:*----------------------*/---------------------------|
B:------------------------/---------------------------|
G:-2---2------2---2-------/---------------------------|
D:-2---2------2---2-------/--5--4--2------------------|
A:-0--x0--3---0--x0--3----/-----------5--3-2----------|
E:*----------------------*/---------------------------|

  Chorus                x2                          x2
e:*---------------------*/*-------------------------*|
B:-3---3---3-------------/---------------------------|
G:-2--x2---2--5---5--5---/-2---2------2---2----------|
D:-0--x0---0--5--x5--5---/-2---2------2---2----------|
A:------------3--x3--3---/-0--x0--3---0--x0--3-------|
E:*---------------------*/*-------------------------*|

e:---------------------------------/---------------------------|
B:---------------------------------/---------------------------|
G:---------------------------------/--7------------------------|
D:-77--77--77--7--6--5-5-----------/--7------------------------|
A:-55-x55-x55-x5--4--3-3-----------/--5------------------------|
E:---------------------------------/---------------------------|

Here's just a riffs. Listen a song.
Tap to rate this tab
# A B C D E F G H I J K L M N O P Q R S T U V W X Y Z