Song name
# A B C D E F G H I J K L M N O P Q R S T U V W X Y Z

Rush - Far Cry tab

Hi my name is Jon and I spent all night listening to Far Cry for you people so i could 
tab it for you :)

Alex Uses alot of chords in this song :)

Snakes And Arrows (2007)-Far Cry

Alex is Gtr I (duh!?) (E,A,D,G,B,E)]


Intro (Basically an E Half Barred Chord)

   E~                                                 F#sus2 (i think)
e-----------------------------------------------------0-------------------|
B-----------------------------------------------------0-------------------|
G--111-1--111--1--1--111--1--1--1-111-1-111-1-1-111---3-------------------|
D--222-2--222--2--2--222--2--2--2-222-2-222-2-2-222---4-------------------|
A--222-2--222--2--2--222--2--2--2-222-2-222-2-2-222---4-------------------|
E--000-0--000--0--0--000--0--0--0-000-0-000-0-0-000---2-------------------|


Main Riff
                                  E    C                            D E  B
e---------------------------------------|------------------------------------|
B---------------------------------------|------------------------------------|
G---------------------------------------|--------------------------------9---|
D----------------------------------99/-5|---------------------------7--9-7---|
A-----------------------3----------77/-3|-------------------3-------5--7-----|
E--2~-0~-2-0-4-2~-0-2-0--2~-0-2-0-2-----|-2-0-2-0-4-2-0-2-0--2-0-202---------|
                       (im sorry but i really had to cram this in^^^)
Repeat The main Riff except the second time do this at the end!!

e------------------------------------------------------|
B------------------------------------------------------|
G----------------------------------------0-------------|
D--------------------------------------2------------0--|
A-----------------------3------------3------------2----|
E--2~-0~-2-0-4-2~-0-2-0---2--0~2-0-2-----------3-------|

Now Here Is The Verse It is Humongously Simple
What You Do Is You Choke The E Note on The A String By Using Pinched Harmonics and Wah 
my choice (the bass has the main melody here ill even provide that if thats what you all 
to do :))

Gtr Verse
e---------------------------------------------|
B---------------------------------------------|
G---------------------------------------------|
D------------------------2--222---------------|
A---[9]~~~~~~~~~~~~~~----2--222---------------|
E------------------------0--000---------------|
               When Geddy Finishes a Line You Do A Random E Chord Triplet

THIS IS WHAT THE BASS DOES!!(NOTE!! I DID NOT TRANSCRIBE THIS I GOT THIS OFF THE BASS 
ON HERE i am simply adding it for your convienance or w/e)

G|------------------4-44-2-444-6-4-6--2-22-0-222-0-2-0---------------------|
D|-2-22-0-222-5-2-5-------------------------------------2-02-02-2-2-5-2----|
A|-------------------------------------------------------------------------|
E|-------------------------------------------------------------------------|

Prechorus
(1st Time)
   G           D             A       B            G
e------------------------------------------------------------|
B------------------------------------------------------------|
G----------------------------2-222~--4--444~-----------------|
D--12-121212~~---------------2-222~--4--444~------5--555~----|
A--10-101010~~-12-121212~~---0-000~--2--222~------5--555~----|
E--------------10-101010~~------------------------3--333~----|

(2nd Time)
   G            D           E    D E      E  D E
e-------------------------------------------------------|
B-------------------------------------------------------|
G-------------------------------------------------------|
D--12-121212~~---------------9-9-7-9-9\--9-9-7-9-9------|
A--10-101010~~--12-121212~~--7-7-5-7-7\--7-7-5-7-7------|
E---------------10-101010~~-----------------------------|

(The ~ in this part^^^ means keep hitting the note until the next you don't actually 
im just too lazy to put the rhythm in)

Chorus
   E     G     A    E     G    F#
e--------------------------------------------------------|
B--------------------------------------------------------|
G--9-9~--------2-2~--------------------------------------|
D--9-9~--5-5~--2-2~-2-2~--5-5~-4-4~----------------------|
A--7-7~--5-5~--0-0~-2-2~--5-5~-4-4~----------------------|
E--------3-3~-------0-0~--3-3~-2-2~----------------------|

(Again the ~ up here ^^ means keep hitting the note because again too lasy to type in 
rhythm)

Break

   E~                                                 F#sus2
e-----------------------------------------------------0-------------------|
B-----------------------------------------------------0-------------------|
G--111-1--111--1--1--111--1--1--1-111-1-111-1-1-111---3-------------------|
D--222-2--222--2--2--222--2--2--2-222-2-222-2-2-222---4-------------------|
A--222-2--222--2--2--222--2--2--2-222-2-222-2-2-222---4-------------------|
E--000-0--000--0--0--000--0--0--0-000-0-000-0-0-000---2-------------------|

Solo if you can call it that :\
You can just do the main riff or you can do this

My idea is to just choke and bend and vibrato the hell out of this note

e-----------------------------|
B-----------------------------|
G------11~--------------------|

Repeat the prechorus And then The Chorus Then The Intro And Your All Set

Hope this is a little bit of a help :)

Jon~~~~~~~
Tap to rate this tab
# A B C D E F G H I J K L M N O P Q R S T U V W X Y Z