Song name
# A B C D E F G H I J K L M N O P Q R S T U V W X Y Z

Rush - We Hold On tab

"We Hold On" by Rush

These are the 2 main parts, not including the solo.

(Tuning: DADGBe)

Intro/Verse:

e|-----------------------|-----------------------|
B|-----------------------|-----------------------|
G|-----------2-----------|-----------0-----------|
D|--------0-----0-----0--|--------0-----0--------|
A|-----3-----------3-----|-----3-----------2b-0--|
D|--0--------------------|--3--------------------|

Chorus:

e|------------------------|-----------------------|
B|------------------------|-----------------------|
G|------------------------|-7h8p7p5-7~-7h8p7p5-7~-|
D|------------------------|-----------------------|
A|-----3--5--5--5h6p5p3-5-|-----------------------|
D|--0---------------------|-----------------------|

e|------------------------|-----------------------|
B|------------------------|-----------------------|
G|------------------------|-----------------------|
D|------------------------|-7h8p7p5-7~-7h8p7p5-7~-|
A|-----3--5--5--5h6p5p3-5-|-----------------------|
D|--0---------------------|-----------------------|

e|------------------------|-----------------------|
B|------------------------|-----------------------|
G|------------------------|-7h8p7p5-7~-7h8p7p5-7~-|
D|------------------------|-----------------------|
A|-----3--5--5--5h6p5p3-5-|-----------------------|
D|--0---------------------|-----------------------|

e|------------------------|-----------------------|
B|------------------------|-----------------------|
G|------------------------|-----------------------|
D|------------------------|-7h8p7p5-7~-7h8p7p5-7~-|
A|-----3--5--5--5h6p5p3-5-|-----------------------|
D|--0---------------------|-----------------------|

e|------------------------|-----------------------|
B|------------------------|--------3--------------|
G|------------------------|-----0-----2-----------|
D|------------------------|--0-----------0-----0--|
A|-----3--5--5---5-3------|-----------------3-----|
D|--0----------------5----|-----------------------|

e|------------------------|-8-10h11p10p8-10~-10h11p10p8-10~-|
B|------------------------|---------------------------------|
G|------------------------|---------------------------------|
D|------------------------|---------------------------------|
A|-----3--5--5--5h6p5p3-5-|---------------------------------|
D|--0---------------------|---------------------------------|

Tap to rate this tab
 
# A B C D E F G H I J K L M N O P Q R S T U V W X Y Z