Guitaretab - guitar tabs
Song name
# A B C D E F G H I J K L M N O P Q R S T U V W X Y Z

Rush - Way The Wind Blows tab

-------------------------------------------------------------------------------
The Way The Wind Blows Intro- Rush
-------------------------------------------------------------------------------
Tabbed by: Jesse Dowdle
Email: jessed-13@hotmail.com

Tuning: Standard (EADGBe)

Intro/Mildly Distorted Electric
e|-----------------------------------------15----15---15----15---------------|
B|-----10h13---10---13b1513r10-10--13--10----10---------10-----10s/---------|
G|---------------------------------------------------------------------------|
D|---------------------------------------------------------------------------|
A|---------------------------------------------------------------------------|
E|---------------------------------------------------------------------------|

e|---------------------------------------------------------------------------|
B|---------------------------------------------------------------------------|
G|---12~-12---12-12----------------------0------0------0------0--------------|
D|---12~-12---12-12--------88b9-------0------0------0------0----------------|
A|---------------------10--------8--10------8------7------5------------------|
E|---------------------------------------------------------------------------|
[ Tab from: http://www.guitaretab.com/r/rush/92066.html ]
e|----------------------------------------------------------15----15-15------|
B|---13~-10--13-10-13-13b15---13r10--------------13~--10-10----10-------1010-|
G|-----------------------------------12~---12-12-----------------------------|
D|---------------------------------------------------------------------------|
A|---------------------------------------------------------------------------|
E|---------------------------------------------------------------------------|

e|---1515s/-----------------------------------------------------------------|
B|---------------------------------------------------------------------------|
G|---------------------------------------------------------------------------|
D|---------------------------------------------------------------------------|
A|----------------1--------1---------1----------1--3-------1---------1-------|
E|------------------3-3-3-3---3-3-3-3---3-3-3-3--------3-3---3-3-3-3---3-3-3-|

e|---------------------------------------------------------------------------|
B|---------------------------------------------------------------------------|
G|---------------------------------------------------------------------------|
D|------3-3-3-\-7-7-7--------------------------------------------------------|
A|------3-3-3-\-7-7-7--------------------------------------------------------|
E|--3---1-1-1-\-5-5-5--------------------------------------------------------|



| /  slide up
| \  slide down
| h  hammer-on
| p  pull-off
| ~  vibrato
| +  harmonic
| x  Mute note
========================================================================
Related for Way The Wind Blows tab