Song name
# A B C D E F G H I J K L M N O P Q R S T U V W X Y Z

Rushing With Apathy - Pins tab

Intro
0:20
---xxx-xxx-xxx-xxx---|
---xxx-xxx-xxx-xxx---|
---xxx-xxx-xxx-xxx---|
---xxx-xxx-xxx-xxx---|
---xxx-xxx-xxx-xxx---|
---xxx-xxx-xxx-xxx---|  REAPEATEDLY

Verse
0:33
---7----7----6----9----9----7----6-----| X2
-----9----9----9----9----9----9----9---|
---------------------------------------|
---------------------------------------|
---------------------------------------|
---------------------------------------|

Riff
0:55
----------------------------------------------------------|
----------------------------------------------------------|
------------6-----------6---------------------------------|
---------6---4-------6---4------6-------------------------|
------5-------6---5-------6-----6-------------------------|
---4-----------4-----------4-4--4-------------------------|

1:30
Intro

1:33
Verse

1:52
Riff x2

Bridge
2:15
------------------|
------------------|
------------------|
---6-6------------|                    6
---6-6------------|                    6
---4-4--4-4-4-----| REPEATEDLY  THEN   4

2:53
Intro

3:00
Verse

3:20
Riff x2
               4
3:45           4
Bridge  THEN   2

4:07
SOLO
REPEATEDLY
6  4
6  4
4  2

4:40
(improvise a solo over previous chords)

5:13
Riff x2

5:40
Bridge

6:15
6
6
4
Tap to rate this tab
# A B C D E F G H I J K L M N O P Q R S T U V W X Y Z