Song name
# A B C D E F G H I J K L M N O P Q R S T U V W X Y Z

Rushing With Apathy - Rwa tab

Intro/Verse/Chorus
0:00
----------------------------------------------------|
----------------------------------------------------|
---------8-----------8-----------8-----------8------|
------8-----8-----8-----8-----8-----8-----8-----8---|
---6-----------6-----------4-----------4------------|
----------------------------------------------------|

----------------------------------------------------|
----------------------------------------------------|
---------8-----------8-----------8-----------8------|
------8-----8-----8-----8-----8-----8-----8-----8---|
----------------------------------------------------|
---6-----------6-----------6-----------6---------6--|


Solo
4:40
(Improvise over intro/verse/chorus)

4:50
(FADE)
Tap to rate this tab
 
# A B C D E F G H I J K L M N O P Q R S T U V W X Y Z