Song name
# A B C D E F G H I J K L M N O P Q R S T U V W X Y Z

Rusko - Jahova tab

-----------------------------------------------------------------------------
			     JAHOVA - Rusko
-----------------------------------------------------------------------------
Tabbed by: Tim West
Email: tim17west@hotmail.com

Tuning: Standard
http://www.myspace.com/ruskonfire

Opening Chords
e|-3-3-3---3-3-3------------------------------------------------------------|
B|-3-3-3---4-4-4------------------------------------------------------------|
G|-3-3-3---3-3-3------------------------------------------------------------|
D|-5-5-5---5-5-5------------------------------------------------------------|
A|-5-5-5---6-6-6------------------------------------------------------------|
E|-3-3-3---3-3-3------------------------------------------------------------|

0:41
e|---------------------------------|  |-------------------------------------|
B|---------------------------------|  |-------------------------------------|
G|---------------------------------|  |-------------------------------------|
D|-----------------5-5-5-5-5-5-5-5-|x3|-------------------------------------|
A|---------------------------------|  |-----------------1-1-1-1-0-0-0-0-----|
E|-3-3-3-3-3-3-3-3-----------------|  |-3-3-3-3-3-3-3-3---------------------|

1:09
e|-3---1-3------------------------------------------------------------------|
B|---------3---1-3----------------------------------------------------------|
G|-----------------3-2-0-0--------------------------------------------------|
D|--------------------------------------------------------------------------|
A|--------------------------------------------------------------------------|
E|--------------------------------------------------------------------------|
Repeat this through out the song.

| /  slide up
| \  slide down
| h  hammer-on
| p  pull-off
| ~  vibrato
| +  harmonic
| x  Mute note
=============================================================================
Tap to rate this tab
 
# A B C D E F G H I J K L M N O P Q R S T U V W X Y Z