Song name
# A B C D E F G H I J K L M N O P Q R S T U V W X Y Z

Rusko - Cockney Thug tab

-----------------------------------------------------------------------------
			           COCKNEY THUG - Rusko
-----------------------------------------------------------------------------
Tabbed by: Tim West
Email: tim17west@hotmail.com

Tuning: Standard
http://www.myspace.com/ruskonfire

0:18
e|--------------------------------------------------------------------------|
B|--------------------------------------------------------------------------|
G|--------------------------------------------------------------------------|
D|--------------------------------------------------------------------------|
A|--------------------------------------------------------------------------|
E|-5-5-5-5-2--2--2--2--2--2--2--2--2--2--2--2--2--1-------------------------|

Occasionally miss out the 5s
Everynow and again it has an extra bit
e|--------------------------------------------------------------------------|
B|--------------------------------------------------------------------------|
G|--------------------------------------------------------------------------|
D|--------------------------------------------------------------------------|
A|---------------------------------------------4--4-------------------------|
E|-5-5-5-5-2--2--2--2--2--2--2--2--2--2--5--5-------------------------------|

The trumpet part
e|-99-99-10-9----77-7--------------------9-9-9-10-9--13-14------------------|
B|-------------------10-9-7----77-7-9-10------------------------------------|
G|--------------------------------------------------------------------------|
D|--------------------------------------------------------------------------|
A|--------------------------------------------------------------------------|
E|--------------------------------------------------------------------------|

e|-99-99-10-9----77-7--------------------7-7---10-9-------------------------|
B|-------------------10-9-7----77-7-9-10----10------------------------------|
G|--------------------------------------------------------------------------|
D|--------------------------------------------------------------------------|
A|--------------------------------------------------------------------------|
E|--------------------------------------------------------------------------|

I think thats about it.

| /  slide up
| \  slide down
| h  hammer-on
| p  pull-off
| ~  vibrato
| +  harmonic
| x  Mute note
=============================================================================
Tap to rate this tab
 
# A B C D E F G H I J K L M N O P Q R S T U V W X Y Z