Song name
# A B C D E F G H I J K L M N O P Q R S T U V W X Y Z

Russell Morris - The Real Thing tab

Russell Morris - The Real Thing
Tabbed by MattyD

Intro:
e|------0-----------5---0-----0-0-------5-4-----|
B|--4-------------7-7---5-----5-5-------5-5-----|
G|--4-----4-----7---7---6-6---6-6-----4---4-----|
D|--4-4-----4-0---------7---7-----5\2-----------|
A|----------------------------------------------|
E|----------------------------------------------|


Verse: Come and see...
e|---------------0h2p0--------0-----------------|
B|------4------3-------3-0----5-----5-3\2-------|
G|----4-4-4\-2--------------6-6-----4-2-2-------|
D|--4---4-4\-0------------7-----7\2-------2/4---|
A|-(2)--------------------0---------------------|
E|----------------------------------------------|

  Theres a meaning there...
e|------------------------0---------------------|
B|-----4--------5-------3---3------5------------|
G|---4---4\---4---4--------------4---4----------|
D|-4-----4\-2-------2-0-------0-2------2-4------|
A|----------------------------------------------|
E|----------------------------------------------|


Chorus:
e|-0----3----4----3----7------------------------|
B|-0----3----4----5----9------------------------|
G|-1----4----5----5----9------------------------|
D|-2----5----6----5----9------------------------|
A|-2----5----6----3----7------------------------|
E|-0----3----4----------------------------------|


Come and see the real thing
Come and see the real thing
Come and see

Come and see the real thing
Come and see the real thing
Come and see

There's a meaning there
But the meaning there
Does the meaning mean a thing?

Come and see the real thing
Come and see the real thing
Come and see

I am the real thing
Ooh mow mow mow mow...

Trying hard to understand the meaning you see in me
Trying hard to understand the meaning that you see in me

There's a meaning there
But the meaning there
Does the meaning mean a thing?

Come and see the real thing
Come and see the real thing
Come and see

I am the real thing
Ooh mow mow mow mow...
Tap to rate this tab
# A B C D E F G H I J K L M N O P Q R S T U V W X Y Z