Song name
# A B C D E F G H I J K L M N O P Q R S T U V W X Y Z

Russell Shaw - Reavers Mansion tab

-------------------------------------------------------------------------------
			     Reaver's Mansion- Fable 3
-------------------------------------------------------------------------------Hey guys, 
this is my first tab so sorry if it is hard to read or anything like that.
I'm a huge fan of the game Fable and absolutely love the soundtrack to it and this
being one of my favorite songs, I had to learn how to play it on guitar.
Some people say it is an interpretation of Greensleeves or Bach.
Either way it's a lovely tune and I did my best to figure out the little opening piece.
Hope you enjoy!

Tabbed by: Carter
Email:carter.auch@yahoo.com

Tuning:EADGBE

e|---------------------------3-3-2-0---0~~~~~~---5-5-5-3---------------------|
B|---0-1p0-----------------5-3---3---3-------------5---3-5-5-3-1-3----0-1p0--|
G|-2---2---2-1-1-2~~~~~~-----4---2-----------------5---4---5-----2---2--2----|
D|-----2------4--------------5---0-----------------7---5---5-----0------2----|
A|-0---0---------0-3-2-0-----5---------0-3-2-0-----7---5---3---------0--0----|
E|-----------0---------------3---------------------5---3---------------------|

e|---------------------------------------------------------------------------|
B|---------------------------------------------------------------------------|
G|-2-1---1-2~~~~~~-----------------------------------------------------------|
D|-----4---------------------------------------------------------------------|
A|---------0-3-2-0-----------------------------------------------------------|
E|---0-----------------------------------------------------------------------|




************************************

| /   slide up
| \   slide down
| h   hammer-on
| p   pull-off
| ~   vibrato
| +   harmonic
| x   Mute note
| b   Bend
| pb  Pre-bend
| br  Bend release
| pbr Pre-bend release
| brb Bend release bend
Tap to rate this tab
# A B C D E F G H I J K L M N O P Q R S T U V W X Y Z