Song name
# A B C D E F G H I J K L M N O P Q R S T U V W X Y Z

Russian Circles - Micah tab

-----------------------------------------------------------------------------
			     Russian Circles - Micah
-----------------------------------------------------------------------------

Tabbed by: Vega84
Email: vega8264@web.de	

Tuning:	Standard

e|-------------------------------------------------------|
B|-----------------------------------1-----1/15------15--|
G|---7---5------7--5--------------3-----2--------14------|
D|-----7------8-------------5----------------------------|
A|-5---------------------5-----5-------------------------|
E|----------6---------3----------------------------------|


e|-------------1-----------------------------------------|
B|-------------------------------------------------------|
G|----------------2--------7------------7----------------|
D|-14\7--0--3-----------8-----8-----10-----10------------|
A|-------------------------------------------------------|
E|-------------------6-----------8-----------------------|


| /  slide up
| \  slide down
| h  hammer-on
| p  pull-off
| ~  vibrato
| +  harmonic
| x  Mute note
=============================================================================
Tap to rate this tab
# A B C D E F G H I J K L M N O P Q R S T U V W X Y Z