Russian Circles - Micah tab

-------------------------------------------------------------------------------
			     Russian Circles - Micah
-------------------------------------------------------------------------------
Tabbed by: Vega84
Email: vega8264@web.de	

Tuning:	Standard

Intro:
e|-------------------------------------------------------|
B|-----------------------------------1-----1/15------15--|
G|---7---5------7--5--------------3-----2--------14------|
D|-----7------8-------------5----------------------------|
A|-5---------------------5-----5-------------------------|
E|----------6---------3----------------------------------|


e|-------------------------------------------------------|
B|------------10-----------------------------------------|
G|----------------7--------7------------7----------------|
D|-14\--0--8-----------8-----8-----10-----10-------------|
A|-------------------------------------------------------|
E|-------------------6-----------8-----------------------|

Interlude:
e|-12h13-12----------------------------------------------|
B|----------13-------------------------------------------|
G|-------------14h15-15-15-14p12-12-12-------------------|
D|-------------------------------------15-15-14-14-------|
A|-------------------------------------------------------|
E|-------------------------------------------------------|

e|-------------------------------------------------------|
B|-------------------------------------------------------|
G|-------------------------------------12----12----------|
D|-------------14-14-14-14-15-14-15-14----14----14-------|
A|-15h17-17-17-------------------------------------------|
E|-------------------------------------------------------|

e|-12h13-12----------------------------------------------|
B|----------13-------------------------------------------|
G|-------------14h15-15-15-14p12-12-12/17----------------|
D|-------------------------------------------------------|
A|-------------------------------------------------------|
E|-------------------------------------------------------|

e|-17----17----15----15----13----13----12-12-------------|
B|----13----13----13----13----13----13-------13-13-------|
G|-------------------------------------------------------|
D|-------------------------------------------------------|
A|-------------------------------------------------------|
E|-------------------------------------------------------|



| /  slide up
| \  slide down
| h  hammer-on
| p  pull-off
| ~  vibrato
| +  harmonic
| x  Mute note
===============================================================================
Tap to rate this tab
 
# A B C D E F G H I J K L M N O P Q R S T U V W X Y Z