Song name
# A B C D E F G H I J K L M N O P Q R S T U V W X Y Z

Russian Circles - Versus tab

Tuning = D Modal (DADGAD)

Legend:
 t = tap
 h = hammer-on
 p = pull-off


Intro
    t  p h   t  p h             t  p h   t  p h
D|--17-9-12-----------|     D|--17-9-12--19-9-12---|
A|-----------17-9-10--| X 3 A|--------------------0|
G|--------------------|     G|---------------------|
D|--------------------|     D|---------------------|
A|--------------------|     A|--------------------0|
D|--------------------|     D|---------------------|


5:10
    t  p h   t  p h
D|--------------------|
A|-------------------0|
G|--12-4-7------------|
D|-----------12-4-5---|
A|-------------------0|
D|--------------------|


5:43

D|---------------------|
A|--------------------0|
G|-------0-------------|
D|----4----4-------0---|
A|--2------------5----0|
D|-------------5-------|


6:10

D|--9----5--|--9----5--4---|
A|--9----5--|--9----5--4--0|
G|--7----4--|--7----4--3---|
D|--9----5--|--9----5--4---|
A|----------|-------------0|
D|----------|--------------|


6:40

D|--16------|
A|-----14--0|
G|----------|
D|----------|
A|---------0|
D|----------|
Tap to rate this tab
# A B C D E F G H I J K L M N O P Q R S T U V W X Y Z