Song name
# A B C D E F G H I J K L M N O P Q R S T U V W X Y Z

Russian Circles - Schipol chords

Hey guys! I noticed there aren't chords of this beatiful song on the net, so I decided
to write them down by ear and share them here on UG. I think these are almost perfect,
however comment if something's wrong. I'll also try to let you know the notes of the 
lead guitar as soon as possible. njoy, and saluti dall'Italia! ;)

First chord progression (play it just one time)
D---------7--------7------------3-------3------------------------------------------------------|
A-------8--------8------------5-------5----------------3--------3------------------------------|
F-----9--------9-----9------5-------5-----5-4------4--------4-----4---------2--------2---------|
C-----------------------9----------------------------5--------5-----5---------4--------4--4----|
G--7--------7-------------3-------3-----------------------------------------5--------5------5--|
D--------------------------------------------------3--------3------------- 2--------2----------|

Second chord progression (that's almost equal to the first, play it four times)
D---------7------------------------3--------------------------------------------------------------|
A-------8----------8------------5---------5-----------------3-------------------------------------|
F-----9----------9------------5--------------5--4--------4----------4--4------------2-------------|
C----------------------9---------------------------------5----------5---------------4-----------4-|
G-7----------7------------3-----------3-----------------------------------------5-----------5----5|
D------------------------------------------------------3----------3------------2-----------2------|

Third chord progression (this is different, play it four times)
D--------------------------------------------------------------------------------------|
A----------5--------------------3--------------------3---------------------------------|
F--------5----------5---------4------------4------4-----------4----------2-------2--4--|
C-----7----------7---9-----5--------5--7------5-------5--7----------4------------------|
G-----------------------------------------------------------------------5---------5----|
D--5----------5----------3--------3----------0-------0-----------2---------2-----------|

Fourth chord progression (turn the distrortion on, here comes the bridge. Play it two times.)
D----------------------------------------------------------------------------------|
A----------------------------------------------------------------------------------|
F--9(tremolo)------------------------------5----------------------7----------------|
C--9(tremolo)------------------------------5----------5----------7-----------------|
G--7(tremolo)------------------------------3----------5----------5-----------------|
D----------------------------------------------------------3-----------------------|

Fifth chord progression (this is the last progression, it's awesome. Play it one time.)
D-------------------------------------------------------------------|
A-------------------------------------------------------------------|
F--9-9-9-9-9-9-9-9-9-9-9-9-9-9-9-9-5-5-5-5-5-5-5-5-5-5-5-5-5-5-5-5--|
C--9-9-9-9-9-9-9-9-9-9-9-9-9-9-9-9-5-5-5-5-5-5-5-5-5-5-5-5-5-5-5-5--|
G--7-7-7-7-7-7-7-7-7-7-7-7-7-7-7-7-3-3-3-3-3-3-3-3-3-3-3-3-3-3-3-3--|
D-------------------------------------------------------------------|

D-------------------------------------------------------------------------------|
A-------------------------------------------------------------------------------|
F----------------------------------------------7-7-7-7-7-7-7-7-7-7-7-7-7-7-7-7--|
C--5-5-5-5-5-5-5-5-5-5-5-5-5-5-5-5-7-7-7-7-7-7-7-7-7-7-7-7-7-7-7-7--------------|
G--5-5-5-5-5-5-5-5-5-5-5-5-5-5-5-5-5-5-5-5-5-5-5-5-5-5-5-5-5-5-5-5--------------|
D--3-3-3-3-3-3-3-3-3-3-3-3-3-3-3-3----------------------------------------------|

D-------------------------------------------------------------------|
A-------------------------------------------------------------------|
F--9-9-9-9-9-9-9-9-9-9-9-9-9-9-9-9-5-5-5-5-5-5-5-5-5-5-5-5-5-5-5-5--|
C--9-9-9-9-9-9-9-9-9-9-9-9-9-9-9-9-5-5-5-5-5-5-5-5-5-5-5-5-5-5-5-5--|
G--7-7-7-7-7-7-7-7-7-7-7-7-7-7-7-7-3-3-3-3-3-3-3-3-3-3-3-3-3-3-3-3--|
D-------------------------------------------------------------------|

D-------------------------------------------------------------------------------|
A-------------------------------------------------------------------------------|
F----------------------------------------------7-7-7-7-7-7-7-7-7-7-7-7-7-7-7-7--|
C--5-5-5-5-5-5-5-5-5-5-5-5-5-5-5-5-7-7-7-7-7-7-7-7-7-7-7-7-7-7-7-7--------------|
G--5-5-5-5-5-5-5-5-5-5-5-5-5-5-5-5-5-5-5-5-5-5-5-5-5-5-5-5-5-5-5-5--------------|
D--3-3-3-3-3-3-3-3-3-3-3-3-3-3-3-3----------------------------------------------|

D-----------------------------------------------------------------------------------|
A-----------------------------------------------------------------------------------|
F--9-9-9-9-9-9-9-9-9-9-9-9-9-9-9-9-12-12-12-12-12-12-12-12-12-12-12-12-12-12-12-12--|
C--9-9-9-9-9-9-9-9-9-9-9-9-9-9-9-9-12-12-12-12-12-12-12-12-12-12-12-12-12-12-12-12--|
G--7-7-7-7-7-7-7-7-7-7-7-7-7-7-7-7-10-10-10-10-10-10-10-10-10-10-10-10-10-10-10-10--|
D-----------------------------------------------------------------------------------|

D-------------------------------------------------------------------------------|
A-------------------------------------------------------------------------------|
F--7-7-7-7-7-7-7-7-7-7-7-7-7-7-7-7-5-5-5-5-5-5-5-5-5-5-5-5-5-5-5-5--------------|
C--7-7-7-7-7-7-7-7-7-7-7-7-7-7-7-7-5-5-5-5-5-5-5-5-5-5-5-5-5-5-5-5--------------|
G--5-5-5-5-5-5-5-5-5-5-5-5-5-5-5-5-5-5-5-5-5-5-5-5-5-5-5-5-5-5-5-5--------------|
D----------------------------------------------3-3-3-3-3-3-3-3-3-3-3-3-3-3-3-3--|

 D------------------------------------------------------------------|
A-------------------------------------------------------------------|
F--9-9-9-9-9-9-9-9-9-9-9-9-9-9-9-9-5-5-5-5-5-5-5-5-5-5-5-5-5-5-5-5--|
C--9-9-9-9-9-9-9-9-9-9-9-9-9-9-9-9-5-5-5-5-5-5-5-5-5-5-5-5-5-5-5-5--|
G--7-7-7-7-7-7-7-7-7-7-7-7-7-7-7-7-3-3-3-3-3-3-3-3-3-3-3-3-3-3-3-3--|
D-------------------------------------------------------------------|

D-------------------------------------------------------------------------------|
A-------------------------------------------------------------------------------|
F----------------------------------------------7-7-7-7-7-7-7-7-7-7-7-7-7-7-7-7--|
C--5-5-5-5-5-5-5-5-5-5-5-5-5-5-5-5-7-7-7-7-7-7-7-7-7-7-7-7-7-7-7-7--------------|
G--5-5-5-5-5-5-5-5-5-5-5-5-5-5-5-5-5-5-5-5-5-5-5-5-5-5-5-5-5-5-5-5--------------|
D--3-3-3-3-3-3-3-3-3-3-3-3-3-3-3-3----------------------------------------------|
Tap to rate this tab
# A B C D E F G H I J K L M N O P Q R S T U V W X Y Z