Song name
# A B C D E F G H I J K L M N O P Q R S T U V W X Y Z

Russian Red - Cigarettes tab

Capo 1st

This is my first tab. I'd looked other tabs before I made this and none of them 
sounded good to me. 
Hope you like it and sorry for my Enlgish.


Intro
|-----------------|------------------|-----------------|-----------------|
|-----------------|------------------|-----------------|-----------------|
|---0---0---0---0-|---0---0---0---0--|---2---2---2---2-|---2---2---2---2-|
|-----------------|------------------|-----------------|-----------------|
|-3---3---3---3---|-2---2---2---2----|-----------------|-0---0---2---2---|
|-----------------|------------------|-1---1---1---1---|-----------------|



Repeat the whole song
|-----------------|------------------|-----------------|-----------------|
|---1---1---1---1-|-----1-------1----|-----------------|-----1-------1---|
|-----------------|---0---0---0---0--|---2---2---2---2-|---2---2---2---2-|
|-----------------|------------------|-----------------|-----------------|
|-3---3---3---3---|-2-------2--------|-----------------|-0-------2-------|
|-----------------|------------------|-1---1---1---1---|-----------------|
Tap to rate this tab
# A B C D E F G H I J K L M N O P Q R S T U V W X Y Z