Song name
# A B C D E F G H I J K L M N O P Q R S T U V W X Y Z

Rusted Root - Send Me On My Way tab

Rusted Root - Send Me On My Way

Tuning: Standard
Capo: 3rd Fret

Great upbeat song, fun to play, good for beginners trying to play more than just chords.
Try first without the base notes on the A string, then work them in how you see fit.

)) - Let ring


Intro:

                                                    let ring
    e|-----0-0-----------0-0-----------0-0-----------0)))-------|
    B|---------0-0-----------0-0-----------0-0------------0-----|
    G|-2--------4----2--------4----2-------------2----------2---|
    D|---2-------------2-------------4-------------4----------4-|
    A|-0---0-0-0-----0---0-0-0-----5---5-5-5))---5---5)))-------|
    E|----------------------------------------------------------|


    e|-----0-0-----------0-0-----------0-0-----------0)))-------|
    B|---------0-0-----------0-0-----------0-0------------0-----|
    G|-2--------4----2--------4----2--------4----2----------2---|
    D|---2-------------2-------------4-------------4----------4-|
    A|-0---0-0-0-----0---0-0-0-----5---5-5-5-----5---5)))-------|
    E|----------------------------------------------------------|


Verse:


    e|-----0-0-----------0-0-----------0-0-----------0-0--------|
    B|---------0-------------0-0-----------0-0-----------0-0----|
    G|-2-------------2-------------2--------4----2--------------|
    D|---2-------------2-------------2-------------2------------|
    A|-0---0-0-0-----0---0-0-0-----0---0-0-0-----0---0-0-0------|
    E|----------------------------------------------------------|


    e|-----0-0-----------0)))---------0-0-----------0-0---------|
    B|---------0-0------------------------0-0-----------0-0-----|
    G|-2--------4----2------------2--------4----2---------------|
    D|---4-------------4------------2-------------2-------------|
    A|-5---5-5-5-----5---0)))-----0---0-0-0-----0---0-0-0-------|
    E|----------------------------------------------------------|


    e|-----0-0-----------0-0-----------0-0-----------0-0--------|
    B|---------0-0-----------0-0-----------0-0-----------0-0----|
    G|-2--------4----2--------4----2--------4----2--------4-----|
    D|---2-------------2-------------2-------------2------------|
    A|-0---0-0-0-----0---0-0-0-----0---0-0-0-----0---0-0-0------|
    E|----------------------------------------------------------|


    e|-----0-0-----------0-0----------0-0-----------0-0---------|
    B|---------0-0-----------0-0----------0-0-----------0-0-----|
    G|-2--------4----2--------4---2--------4----2-----------2---|
    D|---4-------------4------------2-------------2---------0---|
    A|-5---5-5-5-----5---0-0------0---0-0-0-----0---0-0-0-------|
    E|----------------------------------------------------------|
Tap to rate this tab
 
# A B C D E F G H I J K L M N O P Q R S T U V W X Y Z