Song name
# A B C D E F G H I J K L M N O P Q R S T U V W X Y Z

Rustic Overtones - Dig tab

:|---------------------------------|:
:|--6--6--x--6--6--6--x--6--6--6---|:
:|--7--7--x--7--7--7--x--7--7--7---|:
:|--5--5--x--5--5--5--x--5--5--5---|:
:|---------------------------------|:
:|---------------------------------|:

then goto . .

:|---------------------------------|:
:|--5--5--x--5--5--5--x--5--5--5---|:
:|--6--6--x--6--6--6--x--6--6--6---|:
:|--4--4--x--4--5--4--x--4--4--4---|:
:|---------------------------------|:
:|---------------------------------|:

then . .

:|---------------------------------|:
:|--4--4--x--4--4--4--x--4--4--4---|:
:|--5--5--x--5--5--5--x--5--5--5---|:
:|--3--3--x--3--3--3--x--3--3--3---|:
:|---------------------------------|:
:|---------------------------------|:

finally. .

:|---------------------------------|:
:|--3--3--x--3--3--3--x--3--3--3---|:
:|--4--4--x--4--4--4--x--4--4--4---|:
:|--2--2--x--2--2--2--x--2--2--2---|:
:|---------------------------------|:
:|---------------------------------|:

after that, the rest of the fills are one chord

:|--3--|:
:|--4--|:
:|--2--|:
:|-----|:
:|-----|:
:|-----|:
Tap to rate this tab
# A B C D E F G H I J K L M N O P Q R S T U V W X Y Z