Guitaretab - guitar tabs
Song name
# A B C D E F G H I J K L M N O P Q R S T U V W X Y Z

Rustic Overtones - Rock Like War tab

Intro and Verse:
e-----------------
b-----------------
g---------8-8-9-9-
d-7-7-7-x-8-8-9-9-
a-7-7-7-x-6-6-7-7-
E-5-5-5-x---------

e------------------------
b------------------------
g-10-10-10-x-----9-9-x---
d-10-10-10-x-9-9-9-9-x-6-
a--8--8--8-x-9-9-7-7-x-6-
E------------7-7-------4-     
		    -----------
		    -----------
		    -----------
		    -----------
		    -5h7p5-----
		    -------8-7- then back to first line

Chorus:
"Power's gone out so we can start a fire..."
e-----------------
b-----------------
g-----------------
d-3-2-x-x-3-2-x-x-
a-3-2-x-x-3-2-x-x-
E-1-0-x-x-1-0-x-x-
[ Tab from: http://www.guitaretab.com/r/rustic-overtones/34681.html ]
"Ten minute storms that rock like the war outside..."
e-----------------
b-----------------
g-3-2-x-x-3-2-x-x-
d-3-2-x-x-3-2-x-x-
a-1-0-x-x-1-0-x-x-
E-----------------

"We always talk about the weather..."
e-------------------------
b-------------------------
g-------------------------
d-3-3-x-4-4-x-5-5-x-x-2-2- (repeat)
a-3-3-x-4-4-x-5-5-x-x-2-2-
E-1-1-x-2-2-x-3-3-x-x-0-0-

Ending:
"You can move like music..."
e---------------------------------
b---------------------------------
g---------6-6-6-6-----------------
d-7-7-7-7-6-6-6-6-4-4-4-4-4-4-4-4-
a-7-7-7-7-4-4-4-4-4-4-4-4-4-4-4-4-
E-5-5-5-5---------2-2-2-2-2-2-2-2-

e---------------------------------
b---------------------------------
g---------------------------------
d-7-7-7-7-2-2-2-2-4-4-4-4-4-4-4-4-
a-7-7-7-7-2-2-2-2-4-4-4-4-4-4-4-4-
E-5-5-5-5-0-0-0-0-2-2-2-2-2-2-2-2-
Related for Rock Like War tab