Song name
# A B C D E F G H I J K L M N O P Q R S T U V W X Y Z

Rustic Overtones - Pop Trash tab

Help us improve GuitareTab! Take a short survey!
Verse (w/ wah-wah):
   A               Fm             E
   (16x (4 bars))  (8x (2 bars))  (8x (2 bars))
e--5---------------2--------------0------------
b--5---------------2--------------0------------
g--6---------------2--------------1------------
d--7---------------4--------------2------------
a--7---------------4--------------2------------
e--5---------------2--------------0------------

Pre-Chorus:
e-------------
b--14-6-7-14--
g--14-6-7-14--
d--14-6-7-14--
a--12-4-5-12--
e-------------

Horn Part on Pre-chorus:

(high)E-4-5-7-(4)-5-7-9-12-10-10-7-4-5-0  (3x)

then:
(high)E-4-5-7-----------12-10-10-7-4~~~~~~

Chorus (w/ distortion):
"This does not interest me..."
e--------------
b--------------
g-------9------ (repeat)
d--11-7-9-9-9--
a--11-7-7-9-9--
e---9-5---7-7--

Back to Pre-Chorus part, repeat until end under sax solo.
Related for Pop Trash tab