Guitaretab - guitar tabs
Song name
# A B C D E F G H I J K L M N O P Q R S T U V W X Y Z

Rustic Overtones - Iron Boots tab

Verse

   Dm  Bb
e--------
b--6-----
g--7--7--
d--7--8--  (repeat)
a--5--8--
e-----6--


       Iron boots     aluminum  wings         I just... running into 
                  * Play this chord (A) on the upstroke.
|---------|---------|---------|-------------|---------|---------|:
|---------|---------|---------|-------------|---------|---------|:
|---------|---------|---------|-------------|---------|---------|:
|-5-5-5-5-|-5-5-5-7-|-8-8-8-8-|-10-10-10-10-|-3-3-3-3-|-8-8-8-8-|:
|-5-5-5-5-|-5-5-5-7-|-8-8-8-8-|-10-10-10-10-|-3-3-3-3-|-8-8-8-8-|:
|-3-3-3-3-|-3-3-3-5-|-6-6-6-6-|--8--8--8--8-|-1-1-1-1-|-6-6-6-6-|:

  things              And I'm all smashed up
|---------|---------|---------|-------------|
|---------|---------|---------|-------------|
|---------|---------|---------|-------------|
|-5-5-5-5-|-5-5-5-7-|-8-8-8-8-|-10-10-10-10-|
|-5-5-5-5-|-5-5-5-7-|-8-8-8-8-|-10-10-10-10-|
|-3-3-3-3-|-3-3-3-5-|-6-6-6-6-|--8--8--8--8-|



Then:
[ Tab from: http://www.guitaretab.com/r/rustic-overtones/34692.html ]
|---------|---------|---------|---------|---------|---------|----------|-------------|
|---------|---------|---------|---------|---------|---------|----------|-------------|
|---------|---------|---------|---------|---------|---------|----------|-------------|
|-3-3-3-7-|-7-2-2-8-|-8-8-8-7-|-7-5-5-5-|-3-3-3-7-|-7-2-2-8-|-8-3-3-12-|-13-10-10-11-|
|-3-3-3-7-|-7-2-2-8-|-8-8-8-7-|-7-5-5-5-|-3-3-3-7-|-7-2-2-8-|-8-3-3-12-|-13-10-10-11-|
|-1-1-1-5-|-5-0-0-6-|-6-6-6-5-|-5-3-3-3-|-1-1-1-5-|-5-0-0-6-|-6-1-1-10-|-10--8--8--9-|

Play that riff once, and then sing "Honey, today I hit the ground..." etc.


"Tripping me up again, iron boots and matching straight jacket suits . .."
|----------------|
|----------------|
|----------------|
|--7-7-5-5-4-3-3-|
|--7-7-5-5-4-3-3-|
|--5-5-3-3-2-1-1-|

Outro Jam:
|-------------------------
|-------------------------
|-------------------------
|--2-3---4-5---6-7---9-10-
|--2-3---4-5---6-7---9-10-
|--0-1---2-3---4-5---7--8-
Related for Iron Boots tab