Song name
# A B C D E F G H I J K L M N O P Q R S T U V W X Y Z

Rusty Anderson - Hurt Myself tab

O.K., this solo is also just alright, but I think it sounds a lot like the song. Thanks for l@@king!


 E-----------------------------------------------------------------------|
 B-------2-4-6-4--------------4-2-------------2-2----/6-6-7-6-4-4--------|
 G-1-3--------------------1-1-------1-1-3-3------------------------------|
 D--------------------3-4------------------------------------------------|
 A-----------------------------------------------------------------------|
 E-----------------------------------------------------------------------|


 E---9-9-9-9-9-9------8b9---4---2-4-1---------------------16------------|
 B---6-6-7-7-6-6---4---------------------2/-----16-16-18-----18---------|
 G----------------------------------------------------------------------|
 D----------------------------------------------------------------------|
 A----------------------------------------------------------------------|
 E----------------------------------------------------------------------|


             (play fast)
             ^^^^^^^^^^^
 E------------13-11-----|
 B-9-9---14--------14-11|
 G----------------------|
 D----------------------|
 A----------------------|
 E----------------------|
Tap to rate this tab
 
# A B C D E F G H I J K L M N O P Q R S T U V W X Y Z