Song name
# A B C D E F G H I J K L M N O P Q R S T U V W X Y Z

Rusty Cooley - Riders tab

-----------------------------------RIDERS-OUTWORLD--------------------------
Tabbed by:ericjohnson92
Email:amarts_water@yahoo.com

This is the first part of the solo in the song Riders. Its done on a 7 string guitar in 
tuning with the 7th string tuned to B. But i did this on my 6 string. Ne questions or 
just send me an email.

Tuning:standard

e|--20-16----------16-18-15----------15-16-13----------13-15-11----------11|
B|--------16----16----------16----16----------14----14----------13----13---|
G|-----------17----------------15----------------13----------------12------|
D|-------------------------------------------------------------------------|
A|-------------------------------------------------------------------------|
E|-------------------------------------------------------------------------|

e|--15/16-13----------13-15-11----------11-15\13-9----------9-13/15-11-----|
B|-----------14----14----------13----13------------11----11------------13--|
G|--------------13----------------13------------------10-------------------|
D|-------------------------------------------------------------------------|
A|-------------------------------------------------------------------------|
E|-------------------------------------------------------------------------|
              Sweep Part Below
e|--------11--15/16p11---------------------11-15/11p8-----------------8----|
B|-----13-------------13-----------------13----------9---------------9-----|
G|--12------------------13-------------13-------------10-----------10------|
D|------------------------13---------13-----------------10-------10--------|
A|---------------------------15p11h15---------------------11p8h11----------|
E|-------------------------------------------------------------------------|

e|--13/16p13--------------------13-16/18p15--------------------15----------|
B|----------14----------------14-----------16----------------16------------|
G|------------13------------13---------------15------------15--------------|
D|--------------15--------15-------------------17--------17----------------|
A|----------------16p13h16-----------------------18p15h18------------------|
E|-------------------------------------------------------------------------|


| /  slide up
| \  slide down
| h  hammer-on
| p  pull-off
| ~  vibrato
| +  harmonic
| x  Mute note
===============================================================================
Tap to rate this tab
# A B C D E F G H I J K L M N O P Q R S T U V W X Y Z