Song name
# A B C D E F G H I J K L M N O P Q R S T U V W X Y Z

Rusty Cooley - The Art Of Picking tab

Rusty Cooley
Art of picking
standard tunning
Ian/Alexi1


E||--------------------------------------------------|
B||--------------------------------------------------|
G||-----17-21-19-17-19-17-16----16-19-17-16-17-16-14-|
D||--19----------------------17----------------------|
A||--------------------------------------------------|
E||--------------------------------------------------|

--------------------------------------------------|
--------------------------------------------------|
-----14-17-16-14-16-14-12----12-16-14-12-14-12-11-|
--16----------------------14----------------------|
--------------------------------------------------|
--------------------------------------------------|

---------------------------------------------|
---------------------------------------------|
-----11-14-12-11-12-11-9----9-12-11-9-11-9-7-|
--12---------------------10------------------|
---------------------------------------------|
---------------------------------------------|

-----------------------------------|-----------------------------------|
-----------------------------------|-----------------------------------|
----7-11-9-7-9-7-5---5-9-7-5-7-5-4-|----4-7-5-4-9-7-5---5-9-7-5-11-9-7-|
--9----------------7---------------|--5---------------7----------------|
-----------------------------------|-----------------------------------|
-----------------------------------|-----------------------------------|

-------------------------------------------|
-------------------------------------------|
----7-11-9-7-12-11-9----9-12-11-9-14-12-11-|
--9------------------10--------------------|
-------------------------------------------|
-------------------------------------------|

--------------------------------------------------|
--------------------------------------------------|
-----11-14-12-11-16-14-12----12-16-14-12-17-16-14-|
--12----------------------14----------------------|
--------------------------------------------------|
--------------------------------------------------|

--------------------------------------------------|
--------------------------------------------------|
-----14-17-16-14-19-17-16----16-19-17-16-21-19-17-|
--16----------------------17----------------------|
--------------------------------------------------|
--------------------------------------------------|

--------------------------------------------------|
--------------------------------------------------|
-----17-21-19-17-19-17-16----16-19-17-16-17-16-14-|
--19----------------------17----------------------|
--------------------------------------------------|
--------------------------------------------------|

--------------------------------------------------|
--------------------------------------------------|
-----14-17-16-14-16-14-12----12-16-14-12-14-12-11-|
--16----------------------14----------------------|
--------------------------------------------------|
--------------------------------------------------|

--------------------------------------------------|
--------------------------------------------------|
-----11-14-12-11-16-14-12----12-16-14-12-14-12-11-|
--12----------------------14----------------------|
--------------------------------------------------|
--------------------------------------------------|

-----------------------------------------------|
-----------------------------------------------|
-----11-14-12-11-12-11-9----9-12-11-9-14-12-11-|
--12---------------------10--------------------|
-----------------------------------------------|
-----------------------------------------------|

---------------------------------------------|
---------------------------------------------|
-----11-14-12-11-12-11-9----9-12-11-9-11-9-7-|
--12---------------------10------------------|
---------------------------------------------|
---------------------------------------------|

-----------------------------------------|------------------------------------|
-----------------------------------------|------------------------------------|
----7-11-9-7-12-11-9----9-12-11-9-11-9-7-|----7-11-9-7-9-7-5---5-9-7-5-11-9-7-|
--9------------------10------------------|--9----------------7----------------|
-----------------------------------------|------------------------------------|
-----------------------------------------|------------------------------------|


-----------------------------------|------------------------------------------|
-----------------------------------|------------------------------------------|
----7-11-9-7-9-7-5---5-9-7-5-7-5-4-|----4-7-5-7-9-7-5---5-9-7-5-7-5-4---------|
--9----------------7---------------|--5---------------7-----------------------|
-----------------------------------|------------------------------------------|
-----------------------------------|------------------------------------------|
-----------------------------------|------------------------------------------|
-----------------------------------|------------------------------------------|
----4-7-5-4-9-7-5-7-5-4-9-7-5-11-9-|--7-9-7-5-11-9-7-12-11-9-11-9-7-12-11-9---|
--5--------------------------------|------------------------------------------|
-----------------------------------|------------------------------------------|
-----------------------------------|------------------------------------------|

-------------------------------------------------|
-------------------------------------------------|
--14-12-11-12-11-9-14-12-11-16-14-12-14-12-11-16-|
-------------------------------------------------|
-------------------------------------------------|
-------------------------------------------------|

--------------------------------------------------|
--------------------------------------------------|
--14-12-17-16-14-16-14-12-17-16-14-19-17-16-17-16-|
--------------------------------------------------|
--------------------------------------------------|
--------------------------------------------------|

--------------------------------------------------|
-----------------------------------------------20-|
--14-19-17-16-21-19-17----17-21-19-17-19-17-16----|
-----------------------19-------------------------|
--------------------------------------------------|
--------------------------------------------------|

-----------------22-20-19-20-19-17----------------|
--19-17-22-20-19-------------------20-19-17-------|
--------------------------------------------19-17-|
--------------------------------------------------|
--------------------------------------------------|
--------------------------------------------------|

-----------------------------------------20-19-17-|
-----------------------19-17-15-20-19-17----------|
--16----16-19-17-16-14----------------------------|
-----17-------------------------------------------|
--------------------------------------------------|
--------------------------------------------------|

--19-17-15----------------------------------------|
-----------19-17-15-------------------------------|
--------------------17-16-14----14-17-16-14-16-14-|
-----------------------------16-------------------|
--------------------------------------------------|
--------------------------------------------------|

-----------------------19-17-15-17-15-14----------|
-----17-15-13-19-17-15-------------------17-15-13-|
--12----------------------------------------------|
--------------------------------------------------|
--------------------------------------------------|
--------------------------------------------------|

--------------------------------------------------|
-----------------------------------15-13-12-17-15-|
--16-14-12----12-16-14-12-14-12-11----------------|
-----------14-------------------------------------|
--------------------------------------------------|
--------------------------------------------------|

-----17-15-14-15-14-12---------------------------|
--13-------------------15-13-10-13-12-10---------|
-----------------------------------------12-11-9-|
-------------------------------------------------|
-------------------------------------------------|
-------------------------------------------------|

------------------------------------|----------------------------------|
------------------------------------|----------------------------------|
--11-9-7----------------------------|----------------------------------|
---------10-9-7-9-7-5---------------|------------------------7-5-4-9-7-|
----------------------9-7-5-7-5-3---|------------5-3-2-7-5-3-----------|
----------------------------------7-|--5-3-5-3-2-----------------------|

----------------------------------14-12-10-|
-----------------12-10-8-13-12-10----------|
----9-7-5-11-9-7---------------------------|
--5----------------------------------------|
-------------------------------------------|
-------------------------------------------|

--15-14-12--------------------------------------|
-----------15-13-12-13-12-10--------------------|
-----------------------------12-11-9------------|
-------------------------------------12-10-9-10-|
------------------------------------------------|
------------------------------------------------|

---------------------------------------17-15-14-|
---------------------15-13-12-17-15-13----------|
--9-12-11-9-14-12-11----------------------------|
------------------------------------------------|
------------------------------------------------|
------------------------------------------------|

--19-17-15----------------------------------------|
-----------------------------------17-15-13-19-17-|
--------------11-14-12-11-16-14-12----------------|
-----------12-------------------------------------|
--------------------------------------------------|
--------------------------------------------------|

-----19-17-15-20-19-17----------------------------|
--15-------------------------------------------19-|
--------------------------12-16-14-12-17-16-14----|
-----------------------14-------------------------|
--------------------------------------------------|
--------------------------------------------------|

-----------------20-19-17-22-20-19----------------|
--17-15-20-19-17----------------------------------|
--------------------------------------14-17-16-14-|
-----------------------------------16-------------|
--------------------------------------------------|
--------------------------------------------------|

-----------------------------22-20-19-24-22-20-22-|
-----------20-19-17-22-20-19----------------------|
--19-17-16----------------------------------------|
--------------------------------------------------|
--------------------------------------------------|
--------------------------------------------------|

--20-19-20-19-17-19-17-15-------------------------|
--------------------------22-20-19-20-19-17-19-17-|
--------------------------------------------------|
--------------------------------------------------|
--------------------------------------------------|
--------------------------------------------------|

--------------------------------------------------|
--15-17-15-13-------------------------------------|
--------------18-17-16-17-16-14-16-14-12-14-12-11-|
--------------------------------------------------|
--------------------------------------------------|
--------------------------------------------------|

-------------------------------------------------|
-------------------------------------------------|
-------------------------------------------------|
--17-16-14-16-14-12-14-12-10-12-10-9-------------|
-------------------------------------15-14-12-14-|
-------------------------------------------------|

---------------------------------------------|
---------------------------------------------|
---------------------------------------------|
---------------------------------------------|
--12-10-12-10-9-10-9-7-----------------------|
-----------------------14-12-10-12-10-8-10-8-|

-------------------------------------|-----------------------------------|
-------------------------------------|-----------------------------------|
-------------------------------------|-----------------------------------|
-------------------------------------|-----------------------------------|
-------------------------------------|-----------------------------------|
--7-8-7-5-12-10-8-10-8-7-8-7-5-7-5-3-|--10-8-7-8-7-5-7-5-3-5-3-2-8-7-5-7-|

--------------------------||
--------------------------||
--------------------------||
--------------------------||
--------------------------||
--5-3-5-3-2-3-2-0---------||

There.
Ian/Alexi1
www.rutycooley.com
Tap to rate this tab
 
# A B C D E F G H I J K L M N O P Q R S T U V W X Y Z