Rusty Eye - Mr Cannibal tab

-------------------------------------------------------------------------------
			     MR. CANNIBAL - Rusty Eye
-------------------------------------------------------------------------------
Tabbed by: Baron Murtland
Email: baronmurtland@rustyeye.com
\m/ Web: http://www.rustyeye.com
\m/ Album: http://rustyeye.bandcamp.com/album/stendhal-syndrome
\m/ Video: http://www.youtube.com/watch?v=ZGhg96g85CU

Tuning: Standard E-A-d-g-b-e

                             H.            Q           H.           Q        W                 
E||-------|-------|-------|-------------------------|---------------------|-------------------|
B||-------|-------|-------|-------------------------|---------------5-----|--L----------------|
G||-------|-------|-------|--5~---------------------|---------------5~----|--L----------------|
D||-------|-------|-------|--5~---------------------|---------------------|-------------------|
A||-------|-------|-------|-------------------------|---------------------|-------------------|
E||-------|-------|-------|----------------0pbr~----|--L------------------|-------------------|
 
 
                       |--3-|  |---3---|  |--3-|  |---3---|   
  H.           Q       Q    E  E   E   E  Q    E  E   E   E   
--------------------|----------------------------------------|
--------------------|----------------------------------------|
--L-----------------|----------------------------------------|
--------------------|----------7p--6h--7----------6h--7p--6--|
--------------------|--9----9-------------9----9-------------|
--------------------|----------------------------------------|
 
 
  PM PM PM    PM PM    PM PM PM PM PM                                           
  |--3--|  |--3--|  |--3--|  |--3--|     |--3-|  |---3---|  |--3-|  |---3---|   
  E  E  E  E  E  E  E  E  E  E  E  E     Q    E  E   E   E  Q    E  E   E   E   
--------------------------------------|----------------------------------------|
--------------------------------------|----------------------------------------|
--------------------------------------|----------------------------------------|
-----------6--------7--------6--7--9--|----------7p--6h--7----------6h--7p--6--|
--7--7--7-----7--7-----7--7-----------|--9----9-------------9----9-------------|
--------------------------------------|----------------------------------------|
 
 
                           |--3-|  |---3---|  |--3-|  |---3---|   
  Q    Q    Q      Q       Q    E  E   E   E  Q    E  E   E   E   
------------------------|----------------------------------------|
------------------------|----------------------------------------|
------------------------|----------------------------------------|
-------6----7----7g9----|----------7p--6h--7----------6h--7p--6--|
--7---------------------|--9----9-------------9----9-------------|
------------------------|----------------------------------------|
 
 
  PM PM PM    PM PM    PM PM PM PM PM                                                              
  |--3--|  |--3--|  |--3--|  |--3--|     |--3-|  |--3--|  |--3-|  |--3--|                          
  E  E  E  E  E  E  E  E  E  E  E  E     Q    E  E  E  E  Q    E  E  E  E     Q    Q    Q    Q     
--------------------------------------|------------------------------------|----------------------|
--------------------------------------|------------------------------------|----------------------|
--------------------------------------|------------------------------------|----------------------|
-----------6--------7--------6--7--9--|----------7--6--7----------6--7--6--|-------6----7----6----|
--7--7--7-----7--7-----7--7-----------|--9----9-----------9----9-----------|--7-------------------|
--------------------------------------|------------------------------------|----------------------|
 
 
   |----3---|   |---3---|   |----3---|   |---3---|      |----3---|   |---3---|                   
   E    E   E   E   E   E   E    E   E   E   E   E      E    E   E   E   E   E   Q      Q        
----------------------------------------------------|-------------------------------------------|
----------------------------------------------------|---------------------------12b----12pb~----|
--14p--11--11--11--11--11--14p--11--11--11--11--11--|--14p--11--11--11--11--11------------------|
----------------------------------------------------|-------------------------------------------|
----------------------------------------------------|-------------------------------------------|
----------------------------------------------------|-------------------------------------------|
 
 
   |----3---|   |---3---|   |----3---|   |---3---|      |----3---|   |---3---|   |---3--|          
   E    E   E   E   E   E   E    E   E   E   E   E      E    E   E   E   E   E   Q      E   Q      
----------------------------------------------------|----------------------------------12---------|
----------------------------------------------------|---------------------------12b--------12~----|
--14p--11--11--11--11--11--14p--11--11--11--11--11--|--14p--11--11--11--11--11--------------------|
----------------------------------------------------|---------------------------------------------|
----------------------------------------------------|---------------------------------------------|
----------------------------------------------------|---------------------------------------------|
 
 
   |----3---|   |---3---|   |----3---|   |---3---|      |----3---|   |---3---|                   
   E    E   E   E   E   E   E    E   E   E   E   E      E    E   E   E   E   E   Q      Q        
----------------------------------------------------|-------------------------------------------|
----------------------------------------------------|---------------------------12b----12pb~----|
--14p--11--11--11--11--11--14p--11--11--11--11--11--|--14p--11--11--11--11--11------------------|
----------------------------------------------------|-------------------------------------------|
----------------------------------------------------|-------------------------------------------|
----------------------------------------------------|-------------------------------------------|
 
 
   |----3---|   |---3---|   |----3---|   |---3---|      |---3---|   |---3---|               
   E    E   E   E   E   E   E    E   E   E   E   E      E   E   E   E   E   E   H           
----------------------------------------------------|--------------------------12b~--------|
----------------------------------------------------|--12----------14--12------------------|
--14p--11--11--11--11--11--14p--11--11--11--11--11--|------14--11----------14--------------|
----------------------------------------------------|--------------------------------------|
----------------------------------------------------|--------------------------------------|
----------------------------------------------------|--------------------------------------|
 
 
                                     PM PM PM    PM PM    PM PM PM PM PM  
               |--3-|  |---3---|     |--3--|  |--3--|  |--3--|  |--3--|   
   H           Q    E  E   E   E     E  E  E  E  E  E  E  E  E  E  E  E   
--12pb~---------------------------|--------------------------------------|
----------------------------------|--------------------------------------|
----------------------------------|--------------------------------------|
-----------------------6h--7p--6--|-----------6--------7--------6--7--9--|
---------------9----9-------------|--7--7--7-----7--7-----7--7-----------|
----------------------------------|--------------------------------------|
 
 
  |--3-|  |---3---|  |--3-|  |---3---|                            
  Q    E  E   E   E  Q    E  E   E   E     Q    Q    Q      Q     
----------------------------------------|------------------------|
----------------------------------------|------------------------|
----------------------------------------|------------------------|
----------7p--6h--7----------6h--7p--6--|-------6----7----7g9----|
--9----9-------------9----9-------------|--7---------------------|
----------------------------------------|------------------------|
 
 
                                           PM PM PM    PM PM    PM PM PM PM PM  
  |--3-|  |---3---|  |--3-|  |---3---|     |--3--|  |--3--|  |--3--|  |--3--|   
  Q    E  E   E   E  Q    E  E   E   E     E  E  E  E  E  E  E  E  E  E  E  E   
----------------------------------------|--------------------------------------|
----------------------------------------|--------------------------------------|
----------------------------------------|--------------------------------------|
----------7p--6h--7----------6h--7p--6--|-----------6--------7--------6--7--9--|
--9----9-------------9----9-------------|--7--7--7-----7--7-----7--7-----------|
----------------------------------------|--------------------------------------|
 
 
  |--3-|  |--3--|  |--3-|  |--3--|                                                 
  Q    E  E  E  E  Q    E  E  E  E     Q    Q    Q    Q         W                  
------------------------------------|----------------------|----------------------|
------------------------------------|----------------------|----------------------|
------------------------------------|----------------------|----------------------|
----------7--6--7----------6--7--6--|-------6----7----6----|----------------------|
--9----9-----------9----9-----------|--7-------------------|--7g9~----------------|
------------------------------------|----------------------|----------------------|
 
 
                        PM PM PM PM   PM PM        PM PM PM PM PM PM PM PM PM PM PM PM  
                                                   |--3--|  |--3--|  |--3--|  |--3--|   
  W                   S E  E  E  S  S E  E  E.     E  E  E  E  E  E  E  E  E  E  E  E   
-------------------|----------------------------|--------------------------------------|
-------------------|----------------------------|--------------------------------------|
-------------------|----------------------------|--------------------------------------|
-------------------|--4-------------3-----------|--4--3--0-----0--3--4--3--0-----0--3--|
--L----------------|----2--2--2--2----2--2------|-----------4-----------------4--------|
-------------------|----------------------------|--------------------------------------|
 
 
                                           PM PM    PM PM PM    PM    PM PM    PM PM PM    PM  
  W                    W                   E  E  E  E  E  E  E  E     E  E  E  E  E  E  E  E   
--------------------|-------------------|--------------------------|--------------------------|
--------------------|-------------------|--------------------------|--------------------------|
--------------------|-------------------|--------------------------|--------------------------|
--------------------|-------------------|--------4-----------4-----|--------4-----------4-----|
--4~----------------|--L----------------|--2--2-----2--2--2-----2--|--2--2-----2--2--2-----2--|
--------------------|-------------------|--------------------------|--------------------------|
 
 
  PM PM    PM PM PM    PM    PM PM    PM PM PM           PM PM    PM PM PM    PM  
  E  E  E  E  E  E  E  E     E  E  E  E  E  E  E   E     E  E  E  E  E  E  E  E   
--------------------------|---------------------------|--------------------------|
--------------------------|---------------------------|--------------------------|
--------------------------|---------------------------|--------------------------|
--------3-----------3-----|--------3-----------3h--4--|--------4-----------4-----|
--5--5-----5--5--5-----5--|--5--5-----5--5--5---------|--2--2-----2--2--2-----2--|
--------------------------|---------------------------|--------------------------|
 
 
  PM PM    PM PM PM    PM    PM PM    PM PM PM    PM    PM PM    PM PM PM         
  E  E  E  E  E  E  E  E     E  E  E  E  E  E  E  E     E  E  E  E  E  E  E   E   
--------------------------|--------------------------|---------------------------|
--------------------------|--------------------------|---------------------------|
--------------------------|--------------------------|---------------------------|
--------4-----------4-----|--------3-----------3-----|--------3-----------3h--4--|
--2--2-----2--2--2-----2--|--5--5-----5--5--5-----5--|--5--5-----5--5--5---------|
--------------------------|--------------------------|---------------------------|
 
 
  PM PM    PM PM PM    PM    PM PM    PM PM PM    PM    PM PM    PM PM PM    PM  
  E  E  E  E  E  E  E  E     E  E  E  E  E  E  E  E     E  E  E  E  E  E  E  E   
--------------------------|--------------------------|--------------------------|
--------------------------|--------------------------|--------------------------|
--------------------------|--------------------------|--------------------------|
--------4-----------4-----|--------4-----------4-----|--------3-----------3-----|
--2--2-----2--2--2-----2--|--2--2-----2--2--2-----2--|--5--5-----5--5--5-----5--|
--------------------------|--------------------------|--------------------------|
 
 
  PM PM    PM PM PM           PM PM    PM PM PM    PM    PM PM    PM PM PM    PM  
  E  E  E  E  E  E  E   E     E  E  E  E  E  E  E  E     E  E  E  E  E  E  E  E   
---------------------------|--------------------------|--------------------------|
---------------------------|--------------------------|--------------------------|
---------------------------|--------------------------|--------------------------|
--------3-----------3h--4--|--------4-----------4-----|--------4-----------4-----|
--5--5-----5--5--5---------|--2--2-----2--2--2-----2--|--2--2-----2--2--2-----2--|
---------------------------|--------------------------|--------------------------|
 
 
  PM PM    PM PM PM    PM    PM PM    PM PM PM           PM PM    PM PM PM    PM  
  E  E  E  E  E  E  E  E     E  E  E  E  E  E  E   E     E  E  E  E  E  E  E  E   
--------------------------|---------------------------|--------------------------|
--------------------------|---------------------------|--------------------------|
--------------------------|---------------------------|--------------------------|
--------3-----------3-----|--------3-----------3h--4--|--------4-----------4-----|
--5--5-----5--5--5-----5--|--5--5-----5--5--5---------|--2--2-----2--2--2-----2--|
--------------------------|---------------------------|--------------------------|
 
 
                                  PM PM PM    PM          PM PM PM              
  E  E  E  E  E  E  E  E     Q    E  E  E  E  E  E     E  E  E  E  E  E  E  E   
--------------------------|-------------------------|--------------------------|
--------------------------|-------------------------|--------------------------|
--------------------------|-------------------------|--------------------------|
--4--4--4--4--4-----2-----|-------------------------|--------------------------|
--2--2--2--2--2-----0-----|--5-------------5-----5--|--L-----------5-----4-----|
--------------------------|--3----3--3--3--3--3--3--|--L--3--3--3--3-----2-----|
 
 
       PM PM PM    PM          PM PM PM                     PM PM PM    PM     
  Q    E  E  E  E  E  E     E  E  E  E  E  E  E  E     Q    E  E  E  E  E  E   
-------------------------|--------------------------|-------------------------|
-------------------------|--------------------------|-------------------------|
-------------------------|--------------------------|-------------------------|
-------------------------|--------------------------|-------------------------|
--2-------------2-----2--|--L-----------2-----4-----|--5-------------5-----5--|
--0----0--0--0--0--0--0--|--L--0--0--0--0-----2-----|--3----3--3--3--3--3--3--|
 
 
     PM PM PM                                                                   
  E  E  E  E  Q    E   E     Q    E  E  E  E  E  E     E  E  E  E  E  E  E  E   
--------------------------|-------------------------|--------------------------|
--------------------------|-------------------------|--------------------------|
-------------------7s--9--|--9----9--9--9--9--9--9--|--9--9--9--9--9-----7-----|
--------------------------|-------------------------|--9--9--9--9--9-----7-----|
--L-----------5----5s--7--|--7----7--7--7--7--7--7--|--7--7--7--7--7-----5-----|
--L--3--3--3--3-----------|-------------------------|--------------------------|
 
 
  Q    E  E  E  E  E  E     E  Q.     E  Q.        W                   W                 
-------------------------|----------------------|-------------------|-------------------|
-------------------------|----------------------|-------------------|-------------------|
-------------------------|----------------------|-------------------|-------------------|
--5----5--5--5--5--5--5--|--5---------5---------|--5----------------|--L----------------|
--3----3--3--3--3--3--3--|--3---------3---------|--3----------------|--L----------------|
-------------------------|----------------------|-------------------|-------------------|
 
 
                        |--3--|   |---3--|  |---3---|                             |---3--|  
  W                     E  E  E   E   E  E  E   E   E  Q        H.             E  S   S  S  
--------------------|----------------------------------------|-----------------------------|
--------------------|-----------------------9----------9b----|--Lb~------------L--9h-10p-9-|
--------------------|------------11------------11------------|-----------------------------|
--------------------|--11------------11------------11--------|-----------------------------|
--9~----------------|------9--9----------9-------------------|-----------------------------|
--------------------|----------------------------------------|-----------------------------|
 
 
            |-----3----|                   |-----3-----|                    |---3--|   |-3-|       
  H         Q    Q     Q         H         Q     Q     Q        H           E  E   E   E   Q       
-----------------------------|------------------------------|--------------12-----12--------------|
--7~--------7----9----10s----|--12~--------L----10----12----|--12b~------------L-------L--12pb----|
-----------------------------|------------------------------|-------------------------------------|
-----------------------------|------------------------------|-------------------------------------|
-----------------------------|------------------------------|-------------------------------------|
-----------------------------|------------------------------|-------------------------------------|
 
 
                      |--3--|           |-----3----|          
   Q        H         Q     E     Q     Q     Q    Q    Q     
-------------------------------|-----------------------------|
--12pbr-----L~--------L----10--|--9----10p----9--------------|
-------------------------------|-------------------9---------|
-------------------------------|------------------------9----|
-------------------------------|-----------------------------|
-------------------------------|-----------------------------|
 
 
     |---3--|   |---3--|   |---3--|   |---3--|      |---3---|   |---3---|   |---3---|   |---3---|
     E   E  E   E   E  E   E   E  E   E   E  E      E   E   E   E   E   E   E   E   E   E   E   E
----12--11--9-------------12--11--9-------------|--17--16--14--------------17--16--14------------|
---------------12--10--9-------------12--10--9--|--------------17--16--14--------------17--16--14|
------------------------------------------------|------------------------------------------------|
--9g11---------------------------------------L--|------------------------------------------------|
------------------------------------------------|------------------------------------------------|
------------------------------------------------|------------------------------------------------|
 
 
   S   S   S   S  S   S   S   S  S   S   S   S  S   S   S   S  
--16h-17p-16p-12-16h-17p-16p-12-16h-17p-16p-12-16h-17p-16p-12-|
--------------------------------------------------------------|
--------------------------------------------------------------|
--------------------------------------------------------------|
--------------------------------------------------------------|
--------------------------------------------------------------|
 
 
                                 |--3--|                                    
   S   S   S   S  S   S   S   S  Q     H                 W                  
--16h-17p-16p-12-16h-17p-16p-12-------------------|------------------------|
--------------------------------17----------------|------------------------|
--------------------------------------13br--------|------------------------|
--------------------------------------------------|--14g16~----------------|
--------------------------------------------------|------------------------|
--------------------------------------------------|------------------------|
 
 
   |---3---|   |---3---|   |---3---|                                    
   E   E   E   E   E   E   E   E   E   Q          H.            E   E   
--------------------------17----------16br----|--16~------------L--21--|
--------------19------------------------------|------------------------|
--18------------------------------------------|------------------------|
------16--16------16--16------16--16----------|------------------------|
----------------------------------------------|------------------------|
----------------------------------------------|------------------------|
 
 
         |---3---|                                                                
   S  S  E   E   E   E   H             W                    H.            E   E   
--17-21-17--------------21br--------|--L~----------------|--L------------21s--x--|
------------21--19------------------|--------------------|-----------------------|
--------------------18--------------|--------------------|-----------------------|
------------------------------------|--------------------|-----------------------|
------------------------------------|--------------------|-----------------------|
------------------------------------|--------------------|-----------------------|
 
 
  PM PM    PM PM PM    PM    PM PM    PM PM PM    PM    PM PM    PM PM PM    PM  
  E  E  E  E  E  E  E  E     E  E  E  E  E  E  E  E     E  E  E  E  E  E  E  E   
--------------------------|--------------------------|--------------------------|
--------------------------|--------------------------|--------------------------|
--------------------------|--------------------------|--------------------------|
--------4-----------4-----|--------4-----------4-----|--------3-----------3-----|
--2--2-----2--2--2-----2--|--2--2-----2--2--2-----2--|--5--5-----5--5--5-----5--|
--------------------------|--------------------------|--------------------------|
 
 
  PM PM    PM PM PM           PM PM    PM PM PM    PM    PM PM    PM PM PM    PM  
  E  E  E  E  E  E  E   E     E  E  E  E  E  E  E  E     E  E  E  E  E  E  E  E   
---------------------------|--------------------------|--------------------------|
---------------------------|--------------------------|--------------------------|
---------------------------|--------------------------|--------------------------|
--------3-----------3h--4--|--------4-----------4-----|--------4-----------4-----|
--5--5-----5--5--5---------|--2--2-----2--2--2-----2--|--2--2-----2--2--2-----2--|
---------------------------|--------------------------|--------------------------|
 
 
  PM PM    PM PM PM    PM    PM PM    PM PM PM           PM PM    PM PM PM    PM  
  E  E  E  E  E  E  E  E     E  E  E  E  E  E  E   E     E  E  E  E  E  E  E  E   
--------------------------|---------------------------|--------------------------|
--------------------------|---------------------------|--------------------------|
--------------------------|---------------------------|--------------------------|
--------3-----------3-----|--------3-----------3h--4--|--------4-----------4-----|
--5--5-----5--5--5-----5--|--5--5-----5--5--5---------|--2--2-----2--2--2-----2--|
--------------------------|---------------------------|--------------------------|
 
 
  PM PM    PM PM PM    PM    PM PM    PM PM PM    PM    PM PM    PM PM PM         
  E  E  E  E  E  E  E  E     E  E  E  E  E  E  E  E     E  E  E  E  E  E  E   E   
--------------------------|--------------------------|---------------------------|
--------------------------|--------------------------|---------------------------|
--------------------------|--------------------------|---------------------------|
--------4-----------4-----|--------3-----------3-----|--------3-----------3h--4--|
--2--2-----2--2--2-----2--|--5--5-----5--5--5-----5--|--5--5-----5--5--5---------|
--------------------------|--------------------------|---------------------------|
 
 
  PM PM    PM PM PM    PM    PM PM    PM PM PM    PM    PM PM    PM PM PM    PM  
  E  E  E  E  E  E  E  E     E  E  E  E  E  E  E  E     E  E  E  E  E  E  E  E   
--------------------------|--------------------------|--------------------------|
--------------------------|--------------------------|--------------------------|
--------------------------|--------------------------|--------------------------|
--------4-----------4-----|--------4-----------4-----|--------3-----------3-----|
--2--2-----2--2--2-----2--|--2--2-----2--2--2-----2--|--5--5-----5--5--5-----5--|
--------------------------|--------------------------|--------------------------|
 
 
  PM PM    PM PM PM           PM PM    PM PM PM    PM                             
  E  E  E  E  E  E  E   E     E  E  E  E  E  E  E  E     E  E  E  E  E  E  E  E   
---------------------------|--------------------------|--------------------------|
---------------------------|--------------------------|--------------------------|
---------------------------|--------------------------|--------------------------|
--------3-----------3h--4--|--------4-----------4-----|--4--4--4--4--4-----2-----|
--5--5-----5--5--5---------|--2--2-----2--2--2-----2--|--2--2--2--2--2-----0-----|
---------------------------|--------------------------|--------------------------|
 
 
       PM PM PM    PM          PM PM PM                     PM PM PM    PM     
  Q    E  E  E  E  E  E     E  E  E  E  E  E  E  E     Q    E  E  E  E  E  E   
-------------------------|--------------------------|-------------------------|
-------------------------|--------------------------|-------------------------|
-------------------------|--------------------------|-------------------------|
-------------------------|--------------------------|-------------------------|
--5-------------5-----5--|--L-----------5-----4-----|--2-------------2-----2--|
--3----3--3--3--3--3--3--|--L--3--3--3--3-----2-----|--0----0--0--0--0--0--0--|
 
 
     PM PM PM                     PM PM PM    PM          PM PM PM              
  E  E  E  E  E  E  E  E     Q    E  E  E  E  E  E     E  E  E  E  Q    E   E   
--------------------------|-------------------------|--------------------------|
--------------------------|-------------------------|--------------------------|
--------------------------|-------------------------|-------------------7s--9--|
--------------------------|-------------------------|--------------------------|
--L-----------2-----4-----|--5-------------5-----5--|--L-----------5----5s--7--|
--L--0--0--0--0-----2-----|--3----3--3--3--3--3--3--|--L--3--3--3--3-----------|
 
 
  Q    E  E  E  E  E  E     E  E  E  E  E  E  E  E     Q    E  E  E  E  E  E   
-------------------------|--------------------------|-------------------------|
-------------------------|--------------------------|-------------------------|
--9----9--9--9--9--9--9--|--9--9--9--9--9-----7-----|-------------------------|
-------------------------|--9--9--9--9--9-----7-----|--5----5--5--5--5--5--5--|
--7----7--7--7--7--7--7--|--7--7--7--7--7-----5-----|--3----3--3--3--3--3--3--|
-------------------------|--------------------------|-------------------------|
 
 
                                |--3-|  |---3---|  |--3-|  |---3---|   
  E  Q.     H           Q       Q    E  E   E   E  Q    E  E   E   E   
---------------------|-------|----------------------------------------|
---------------------|-------|----------------------------------------|
---------------------|-------|----------------------------------------|
--5------------------|-------|----------7p--6h--7----------6h--7p--6--|
--3------------------|-------|--9----9-------------9----9-------------|
---------------------|-------|----------------------------------------|
 
 
  PM PM PM    PM PM    PM PM PM PM PM                                           
  |--3--|  |--3--|  |--3--|  |--3--|     |--3-|  |---3---|  |--3-|  |---3---|   
  E  E  E  E  E  E  E  E  E  E  E  E     Q    E  E   E   E  Q    E  E   E   E   
--------------------------------------|----------------------------------------|
--------------------------------------|----------------------------------------|
--------------------------------------|----------------------------------------|
-----------6--------7--------6--7--9--|----------7p--6h--7----------6h--7p--6--|
--7--7--7-----7--7-----7--7-----------|--9----9-------------9----9-------------|
--------------------------------------|----------------------------------------|
 
 
                           |--3-|  |---3---|  |--3-|  |---3---|   
  Q    Q    Q      Q       Q    E  E   E   E  Q    E  E   E   E   
------------------------|----------------------------------------|
------------------------|----------------------------------------|
------------------------|----------------------------------------|
-------6----7----7g9----|----------7p--6h--7----------6h--7p--6--|
--7---------------------|--9----9-------------9----9-------------|
------------------------|----------------------------------------|
 
 
  PM PM PM    PM PM    PM PM PM PM PM                                                              
  |--3--|  |--3--|  |--3--|  |--3--|     |--3-|  |--3--|  |--3-|  |--3--|                          
  E  E  E  E  E  E  E  E  E  E  E  E     Q    E  E  E  E  Q    E  E  E  E     Q    Q    Q    Q     
--------------------------------------|------------------------------------|----------------------|
--------------------------------------|------------------------------------|----------------------|
--------------------------------------|------------------------------------|----------------------|
-----------6--------7--------6--7--9--|----------7--6--7----------6--7--6--|-------6----7----6----|
--7--7--7-----7--7-----7--7-----------|--9----9-----------9----9-----------|--7-------------------|
--------------------------------------|------------------------------------|----------------------|
 
 
  Q     E  E  E  E  E  E     Q     E  E  E  E  E  E     Q     E  E  E  E  E  E   
--------------------------|--------------------------|--------------------------|
--------------------------|--------------------------|--------------------------|
--------------------9-----|--------------------------|--------------------9-----|
-------11--------7-----7--|-------11-----------9-----|-------11--------7-----7--|
--9--------9--------------|--9--------9-----7-----7--|--9--------9--------------|
--------------------------|--------------------------|--------------------------|
 
 
      PM PM      PM                                                                   
   E  S  S   E   S  S H           Q     E  E  E  E  E  E     Q     E  E  E  E  E  E   
-------------------------------|--------------------------|--------------------------|
-------------------------------|--------------------------|--------------------------|
-------------------------------|--------------------9-----|--------------------------|
-------------------------------|-------11--------7-----7--|-------11-----------9-----|
--11--------12-----14----------|--9--------9--------------|--9--------9-----7-----7--|
---9--9--9--10--10-12----------|--------------------------|--------------------------|
 
 
                                 PM PM      PM                                        
  Q     E  E  E  E  E  E      E  S  S   E   S  S H           Q     E  E  E  E  E  E   
--------------------------|-------------------------------|--------------------------|
--------------------------|-------------------------------|--------------------------|
--------------------9-----|-------------------------------|--------------------9-----|
-------11--------7-----7--|-------------------------------|-------11--------7-----7--|
--9--------9--------------|--11--------12-----14----------|--9--------9--------------|
--------------------------|---9--9--9--10--10-12----------|--------------------------|
 
 
                                                            PM PM      PM             
  Q     E  E  E  E  E  E     Q     E  E  E  E  E  E      E  S  S   E   S  S H         
--------------------------|--------------------------|-------------------------------|
--------------------------|--------------------------|-------------------------------|
--------------------------|--------------------9-----|-------------------------------|
-------11-----------9-----|-------11--------7-----7--|-------------------------------|
--9--------9-----7-----7--|--9--------9--------------|--11--------12-----14----------|
--------------------------|--------------------------|---9--9--9--10--10-12----------|
 
 
  Q     E  E  E  E  E  E     Q     E  E  E  E  E  E     Q     E  E  E  E  E  E   
--------------------------|--------------------------|--------------------------|
--------------------------|--------------------------|--------------------------|
--------------------9-----|--------------------------|--------------------9-----|
-------11--------7-----7--|-------11-----------9-----|-------11--------7-----7--|
--9--------9--------------|--9--------9-----7-----7--|--9--------9--------------|
--------------------------|--------------------------|--------------------------|
 
 
      PM PM      PM                   PM PM PM PM PM PM PM       PM PM    PM PM    PM  
   E  S  S   E   S  S H            E  E  E  E  E  E  E  E     E  E  E  E  E  E  E  E   
-------------------------------|---------------------------|--------------------------|
-------------------------------|---------------------------|--------------------------|
-------------------------------|---------------------------|--9--------9--------9-----|
-------------------------------|--11-----------------------|-----7--7-----7--7-----7--|
--11--------12-----14----------|---9--9--9--9--9--9--9--9--|--------------------------|
---9--9--9--10--10-12----------|---------------------------|--------------------------|
 
 
      PM PM PM PM PM PM PM    PM    PM PM    PM              PM PM PM     PM PM PM  
   E  E  E  E  E  E  E  E     E  E  E  E  E  E  E  E      E  E  E  E   E  E  E  E   
---------------------------|--------------------------|----------------------------|
---------------------------|--------------------------|----------------------------|
---------------------------|--------------------------|----------------------------|
--11-----------------------|-----9--------9-----9--9--|--11-----------11-----------|
---9--9--9--9--9--9--9--9--|--7--7--7--7--7--7--7--7--|---9--9--9--9---9--9--9--9--|
---------------------------|--------------------------|----------------------------|
 
 
        PM       PM    PM        PM PM PM      PM  PM  PM         PM  PM  PM              
  E  E  E  E  E  E  E  E      E  E  E  E   E   E   E   E      E   E   E   E   Q     Q     
--------------------------|-------------------------------|------------------------------|
--------------------------|-------------------------------|------------------------------|
--9--9-----9--9-----9-----|-------------------------------|------------------------------|
--------7--------7-----7--|-------------------------------|------------------------------|
--------------------------|--11-----------12--------------|--14--------------12----11----|
--------------------------|---9--9--9--9--10--10--10--10--|--12--12--12--12--------------|
 
 
      PM PM PM     PM PM PM       PM PM    PM PM    PM        PM PM PM     PM PM PM  
   E  E  E  E   E  E  E  E     E  E  E  E  E  E  E  E      E  E  E  E   E  E  E  E   
----------------------------|--------------------------|----------------------------|
----------------------------|--------------------------|----------------------------|
----------------------------|--9--------9--------9-----|----------------------------|
--11-----------11-----------|-----7--7-----7--7-----7--|--11-----------11-----------|
---9--9--9--9---9--9--9--9--|--------------------------|---9--9--9--9---9--9--9--9--|
----------------------------|--------------------------|----------------------------|
 
 
  PM    PM PM    PM              PM PM PM     PM PM PM    PM    PM PM    PM        
  E  E  E  E  E  E  E  E      E  E  E  E   E  E  E  E     E  E  E  E  E  E  E  E   
--------------------------|----------------------------|--------------------------|
--------------------------|----------------------------|--------------------------|
--------------------------|----------------------------|-----9--------9-----9--9--|
-----9--------9-----9--9--|--11-----------11-----------|--7-----7--7-----7--------|
--7--7--7--7--7--7--7--7--|---9--9--9--9---9--9--9--9--|--------------------------|
--------------------------|----------------------------|--------------------------|
 
 
   E   E   E   E   E   E   E   E      E   E   E   E   Q     Q     
----------------------------------|------------------------------|
----------------------------------|------------------------------|
----------------------------------|------------------------------|
----------------------------------|------------------------------|
--11--11--11--11--12--12--12--12--|--14--14--14--14--12----11----|
---9---9---9---9--10--10--10--10--|--12--12--12--12--------------|
 
 
                                           PM PM PM    PM PM    PM PM PM PM PM  
  |--3-|  |---3---|  |--3-|  |---3---|     |--3--|  |--3--|  |--3--|  |--3--|   
  Q    E  E   E   E  Q    E  E   E   E     E  E  E  E  E  E  E  E  E  E  E  E   
----------------------------------------|--------------------------------------|
----------------------------------------|--------------------------------------|
----------------------------------------|--------------------------------------|
----------7p--6h--7----------6h--7p--6--|-----------6--------7--------6--7--9--|
--9----9-------------9----9-------------|--7--7--7-----7--7-----7--7-----------|
----------------------------------------|--------------------------------------|
 
 
  |--3-|  |---3---|  |--3-|  |---3---|                            
  Q    E  E   E   E  Q    E  E   E   E     Q    Q    Q      Q     
----------------------------------------|------------------------|
----------------------------------------|------------------------|
----------------------------------------|------------------------|
----------7p--6h--7----------6h--7p--6--|-------6----7----7g9----|
--9----9-------------9----9-------------|--7---------------------|
----------------------------------------|------------------------|
 
 
                                           PM PM PM    PM PM    PM PM PM PM PM  
  |--3-|  |---3---|  |--3-|  |---3---|     |--3--|  |--3--|  |--3--|  |--3--|   
  Q    E  E   E   E  Q    E  E   E   E     E  E  E  E  E  E  E  E  E  E  E  E   
----------------------------------------|--------------------------------------|
----------------------------------------|--------------------------------------|
----------------------------------------|--------------------------------------|
----------7p--6h--7----------6h--7p--6--|-----------6--------7--------6--7--9--|
--9----9-------------9----9-------------|--7--7--7-----7--7-----7--7-----------|
----------------------------------------|--------------------------------------|
 
 
  |--3-|  |--3--|  |--3-|  |--3--|                                                 
  Q    E  E  E  E  Q    E  E  E  E     Q    Q    Q    Q         W                  
------------------------------------|----------------------|----------------------|
------------------------------------|----------------------|----------------------|
------------------------------------|----------------------|----------------------|
----------7--6--7----------6--7--6--|-------6----7----6----|----------------------|
--9----9-----------9----9-----------|--7-------------------|--7g9~----------------|
------------------------------------|----------------------|----------------------|
 
 
       PM   PM        PM   PM           PM   PM                                       
  |----3----|    |----3----|       |----3----|    |----3----|                         
  Q    Q    Q    Q    Q    Q       Q    Q    Q    Q    Q    Q       W                 
--------------------------------|--------------------------------|-------------------|
--------------------------------|--------------------------------|-------------------|
--------------------------------|--------------------------------|-------------------|
--6--------------6--------------|--6--------------6----7----9----|--L----------------|
-------7----7---------7----7----|-------7----7-------------------|-------------------|
--------------------------------|--------------------------------|-------------------|
 
 
   Q    Q     Q    Q         E  Q.     H          
-------------------------|----------------------||
-------------------------|----------------------||
-------------------------|----------------------||
--11----9----11----Ls----|---x------------------||
---9----7-----9----Ls----|---x------------------||
-------------------------|----------------------||

************************************

Duration Legend
---------------
W - whole
H - half
Q - quarter
E - 8th
S - 16th
T - 32nd
X - 64th
. - note dotted
|-n-|  - n-tuplets
 
 
Tablature Legend
----------------
L - tied note
x - dead note
g - grace note
(n) - ghost note
> - accentuded note
NH - natural harmonic
AH - artificial harmonic
TH - tapped harmonic
SH - semi harmonic
PH - pitch harmonic
h - hammer on
p - pull off
b - bend
br - bendRelease
pb - preBend
pbr - preBendRelease
brb - bendReleaseBend
\n/ - tremolo bar dip
\n - tremolo bar dive
-/n - tremolo bar Release up
/n\ - tremolo bar inverted dip
/n - tremolo bar return
-\n - tremolo bar Release down
S - shift slide
s - legato slide
/ -  slide into from below or out of upwards
\ -  slide into from above or out of downwards
~ - vibrato
W - wide vibrato
tr - tril'
TP - tremolo picking
T - tapping
S - slap
P - pop
< - fade in
^ - brush up
v - brush down
Tap to rate this tab
 
# A B C D E F G H I J K L M N O P Q R S T U V W X Y Z