Song name
# A B C D E F G H I J K L M N O P Q R S T U V W X Y Z

Rusty Eye - Mondo Cane tab

-------------------------------------------------------------------------------
			     MONDO CANE - Rusty Eye
-------------------------------------------------------------------------------
Tabbed by: Baron Murtland
Email: baronmurtland@rustyeye.com
\m/ Web: http://www.rustyeye.com
\m/ Album: http://rustyeye.bandcamp.com/album/possessor

Tuning: Standard E-A-d-g-b-e

                     S S S S S S S S S S S S Q
E||-------|-------|-------------------------------|
B||-------|-------|-------------------------------|
G||-------|-------|------------------6-6-7--------|
D||-------|-------|----------5-5-6----------------|
A||-------|-------|--4-4-5------------------------|
E||-------|-------|-------------------------------|


  S S S S S S S S S S S S Q       S S S S S S S S S S S S Q
-------------------------------|-------------------------------|
-------------------------------|-------------------------------|
--7-7-6------------------------|------------------6-6-7--------|
----------6-6-5----------------|----------5-5-6----------------|
------------------5-5-4--------|--4-4-5------------------------|
-------------------------------|-------------------------------|


                  |----3----|
  S S S S S S S S Q    Q    Q       S S S S S S S S S S S S Q
---------------------------------|-------------------------------|
---------------------------------|-------------------------------|
--7-7-6--------------------------|------------------6-6-7--------|
----------6-6-5---6----6----6----|----------5-5-6----------------|
------------------4----4----4----|--4-4-5------------------------|
---------------------------------|-------------------------------|


  S S S S S S S S S S S S Q       S S S S S S S S S S S S Q
-------------------------------|-------------------------------|
-------------------------------|-------------------------------|
--7-7-6------------------------|------------------6-6-7--------|
----------6-6-5----------------|----------5-5-6----------------|
------------------5-5-4--------|--4-4-5------------------------|
-------------------------------|-------------------------------|


                  |----3----|
  S S S S S S S S Q    Q    Q       W                   W
---------------------------------|-------------------|-------------------|
---------------------------------|-------------------|-------------------|
--7-7-6--------------------------|-------------------|-------------------|
----------6-6-5---6----6----6----|--8----------------|--L----------------|
------------------4----4----4----|--6----------------|--L----------------|
---------------------------------|-------------------|-------------------|


  Q    E  E  E  E  E  E     E  E  E  E  Q    E  E     E  E  E  E  E  E  E  E
-------------------------|-------------------------|--------------------------|
-------------------------|-------------------------|--------------------------|
-------------------------|-------------------------|--------------------------|
--8----x--x--8--7--------|--------------8----x--x--|--8--7--------------------|
--6----x--x--6--5--x--9--|--x--8--x--x--6----x--x--|--6--5--x--9--x--8--x--x--|
-------------------x--7--|--x--6--x--x-------------|--------x--7--x--6--x--x--|


  Q    E  E  E  E  E  E     E  E  E  E  Q    E  E     E  E  E  E  E  E  E  E
-------------------------|-------------------------|--------------------------|
-------------------------|-------------------------|--------------------------|
-------------------------|-------------------------|--------------------------|
--8----x--x--8--7--------|--------------8----x--x--|--8--7--------------------|
--6----x--x--6--5--x--9--|--x--8--x--x--6----x--x--|--6--5--x--9--x--8--x--x--|
-------------------x--7--|--x--6--x--x-------------|--------x--7--x--6--x--x--|


     PM PM PM    PM PM             PM PM    PM PM PM
  E  E  E  E  E  E  E  E     E  E  E  E  E  E  E  E
--------------------------|--------------------------|
--------------------------|--------------------------|
--------------8-----------|--------------------------|
--8-----------------------|--------------8-----------|
-----6--0--6-----------9--|--0--8-----------6--0--6--|
-----------------0--7-----|--------6--0--------------|


     PM PM          PM PM       PM PM PM    PM PM
  E  E  E  E  E  E  E  E     E  E  E  E  E  E  E  E
--------------------------|--------------------------|
--------------------------|--------------------------|
--8-----------------------|--------------8-----------|
--------------------------|--8-----------------------|
-----------9--0--8--------|-----6--0--6-----------9--|
-----0--7-----------6--0--|-----------------0--7-----|


        PM PM    PM PM PM       PM PM          PM PM
  E  E  E  E  E  E  E  E     E  E  E  E  E  E  E  E
--------------------------|--------------------------|
--------------------------|--------------------------|
--------------------------|--8-----------------------|
--------------8-----------|--------------------------|
--0--8-----------6--0--6--|-----------9--0--8--------|
--------6--0--------------|-----0--7-----------6--0--|


      PM PM PM     PM PM               PM PM     PM PM PM
   E  E  E  E   E  E  E   E     E   E  E  E   E  E  E  E
-----------------------------|----------------------------|
-----------------------------|----------------------------|
---------------10------------|----------------------------|
--10-------------------------|---------------10-----------|
------8--0--8------------11--|--0--10------------8--0--8--|
-------------------0--9------|---------8--0---------------|


      PM PM            PM PM       PM PM PM    PM PM
   E  E  E   E  E   E  E  E     E  E  E  E  E  E  E  E
-----------------------------|--------------------------|
-----------------------------|--------------------------|
--10-------------------------|--------------8-----------|
-----------------------------|--8-----------------------|
------------11--0--10--------|-----6--0--6-----------9--|
------0--9-------------8--0--|-----------------0--7-----|


        PM PM    PM PM PM       PM PM          PM PM
  E  E  E  E  E  E  E  E     E  E  E  E  E  E  E  E
--------------------------|--------------------------|
--------------------------|--------------------------|
--------------------------|--8-----------------------|
--------------8-----------|--------------------------|
--0--8-----------6--0--6--|-----------9--0--8--------|
--------6--0--------------|-----0--7-----------6--0--|


     PM PM PM PM PM             PM PM PM PM PM
  E  E  E  E  E  E  E  E     E  E  E  E  E  E  E  E
--------------------------|--------------------------|
--------------------------|--------------------------|
--------------------------|--------------------------|
--------------------------|--------------------------|
--2-----------------8--9--|--2-----------------9--8--|
--0--0--0--0--0--0--6--7--|--0--0--0--0--0--0--7--6--|


     PM PM PM PM PM
  E  E  E  E  E  E  E  E     E  E  E  E   E   E  E  E
--------------------------|----------------------------|
--------------------------|----------------------------|
--------------------------|----------------------------|
--------------------------|-----8--9-----12--11-----8--|
--2-----------------8--9--|-----6--7-----10---9-----6--|
--0--0--0--0--0--0--6--7--|----------------------------|


                              PM PM PM PM PM PM PM
  E  E  E  E  E  Q.        E  S  S  E  S  S  E  E  E  E
------------------------|--------------------------------|
------------------------|--------------------------------|
------------------------|--------------------------------|
--9-----8--9-----8------|--------------------------------|
--7-----6--7-----6------|--2-----------------------8--9--|
------------------------|--0--0--0--0--0--0--0--0--6--7--|


     PM PM PM PM PM PM PM             PM PM PM PM PM PM PM
  E  S  S  E  S  S  E  E  E  E     E  S  S  E  S  S  E  E  E  E
--------------------------------|--------------------------------|
--------------------------------|--------------------------------|
--------------------------------|--------------------------------|
--------------------------------|--------------------------------|
--2-----------------------9--8--|--2-----------------------8--9--|
--0--0--0--0--0--0--0--0--7--6--|--0--0--0--0--0--0--0--0--6--7--|


  E  E  E  E   E   E  E  E     E  E  E  E  E  Q.
----------------------------|------------------------|
----------------------------|------------------------|
----------------------------|------------------------|
-----8--9-----12--11-----8--|--9-----8--9-----8------|
-----6--7-----10---9-----6--|--7-----6--7-----6------|
----------------------------|------------------------|


     PM PM PM PM PM PM PM             PM PM PM PM PM PM PM
  E  S  S  E  S  S  E  E  E  E     E  S  S  E  S  S  E  E  E  E
--------------------------------|--------------------------------|
--------------------------------|--------------------------------|
--------------------------------|--------------------------------|
--------------------------------|--------------------------------|
--2-----------------------8--9--|--2-----------------------9--8--|
--0--0--0--0--0--0--0--0--6--7--|--0--0--0--0--0--0--0--0--7--6--|


     PM PM PM PM PM PM PM
  E  S  S  E  S  S  E  E  E  E     E  E  E  E   E   E  E  E
--------------------------------|----------------------------|
--------------------------------|----------------------------|
--------------------------------|----------------------------|
--------------------------------|-----8--9-----12--11-----8--|
--2-----------------------8--9--|-----6--7-----10---9-----6--|
--0--0--0--0--0--0--0--0--6--7--|----------------------------|


                              PM PM PM PM PM             PM PM PM PM PM
  E  E  E  E  E  Q.        E  E  E  E  E  E  E  E     E  E  E  E  E  E  E  E
------------------------|--------------------------|--------------------------|
------------------------|--------------------------|--------------------------|
------------------------|--------------------------|--------------------------|
--9-----8--9-----8------|--------------------------|--------------------------|
--7-----6--7-----6------|--2-----------------8--9--|--2-----------------9--8--|
------------------------|--0--0--0--0--0--0--6--7--|--0--0--0--0--0--0--7--6--|


     PM PM PM PM PM
  E  E  E  E  E  E  E  E     E  E  E  E   E   E  E  E
--------------------------|----------------------------|
--------------------------|----------------------------|
--------------------------|----------------------------|
--------------------------|-----8--9-----12--11-----8--|
--2-----------------8--9--|-----6--7-----10---9-----6--|
--0--0--0--0--0--0--6--7--|----------------------------|


                              PM PM PM PM PM PM PM
  E  E  E  E  E  Q.        E  S  S  E  S  S  E  E  Q
------------------------|-------------------------------|
------------------------|-------------------------------|
------------------------|-------------------------------|
--9-----8--9-----8------|-------------------------------|
--7-----6--7-----6------|--2-----------------------3----|
------------------------|--0--0--0--0--0--0--0--0--1----|


     PM PM PM PM PM PM PM             PM PM PM PM PM PM PM
  E  S  S  E  S  S  E  E  E  E     E  S  S  E  S  S  E  E  Q
--------------------------------|-------------------------------|
--------------------------------|-------------------------------|
--------------------------------|-------------------------------|
--------------------------------|-------------------------------|
--2-----------------------3--3--|--2-----------------------3----|
--0--0--0--0--0--0--0--0--1--1--|--0--0--0--0--0--0--0--0--1----|


  PM PM PM PM PM PM PM PM       PM PM PM PM PM PM PM
  E  E  E  E  E  E  E  E     E  S  S  E  S  S  E  E  Q
--------------------------|-------------------------------|
--------------------------|-------------------------------|
--------------------------|-------------------------------|
--------------------------|-------------------------------|
--5--4--3--2--2--3--4--3--|--2-----------------------3----|
--3--2--1--0--0--1--2--1--|--0--0--0--0--0--0--0--0--1----|


     PM PM PM PM PM PM PM             PM PM PM PM PM PM PM
  E  S  S  E  S  S  E  E  E  E     E  S  S  E  S  S  E  E  Q
--------------------------------|-------------------------------|
--------------------------------|-------------------------------|
--------------------------------|-------------------------------|
--------------------------------|-------------------------------|
--2-----------------------3--3--|--2-----------------------3----|
--0--0--0--0--0--0--0--0--1--1--|--0--0--0--0--0--0--0--0--1----|


  PM PM PM PM PM PM PM PM       PM PM PM PM PM PM PM PM PM PM
  E  E  E  E  E  E  E  E     E  S  S  S  S  S  S  S  S  S  S   Q
--------------------------|-----------------------------------------|
--------------------------|-----------------------------------------|
--------------------------|-----------------------------------------|
--------------------------|-----------------------------------------|
--5--4--3--2--2--3--4--3--|--9--------------------------------10----|
--3--2--1--0--0--1--2--1--|--7--7--7--7--7--7--7--7--7--7--7---8----|


     PM PM PM PM PM PM PM PM PM PM
  E  S  S  S  S  S  S  S  S  S  S   E   E
-------------------------------------------|
-------------------------------------------|
-------------------------------------------|
-------------------------------------------|
--9--------------------------------10--10--|
--7--7--7--7--7--7--7--7--7--7--7---8---8--|


     PM PM PM PM PM PM PM PM PM PM          PM PM PM PM PM PM PM PM
  E  S  S  S  S  S  S  S  S  S  S   Q       E  E  E  E  E  E  E  E
-----------------------------------------|--------------------------|
-----------------------------------------|--------------------------|
-----------------------------------------|--------------------------|
-----------------------------------------|--------------------------|
--9--------------------------------10----|--5--4--3--2--2--3--4--3--|
--7--7--7--7--7--7--7--7--7--7--7---8----|--3--2--1--0--0--1--2--1--|


     PM PM PM PM PM PM PM            PM PM PM PM PM PM PM
  E  S  S  E  S  S  E  E  Q       E  S  S  E  S  S  E  E  E  E
-------------------------------|--------------------------------|
-------------------------------|--------------------------------|
-------------------------------|--------------------------------|
-------------------------------|--------------------------------|
--2-----------------------3----|--2-----------------------3--3--|
--0--0--0--0--0--0--0--0--1----|--0--0--0--0--0--0--0--0--1--1--|


     PM PM PM PM PM PM PM         PM PM PM PM PM PM PM PM
  E  S  S  E  S  S  E  E  Q       E  E  E  E  E  E  E  E
-------------------------------|--------------------------|
-------------------------------|--------------------------|
-------------------------------|--------------------------|
-------------------------------|--------------------------|
--2-----------------------3----|--5--4--3--2--2--3--4--3--|
--0--0--0--0--0--0--0--0--1----|--3--2--1--0--0--1--2--1--|


            PM PM  PMPM                    PM PM PM PM
  Q    Q    S  S   S S  Q        Q    Q    S  S  S  S  Q
------------------------------|-------------------------------|
------------------------------|-------------------------------|
------------------------------|-------------------------------|
--9----9-------------7--9~----|--8----8-------------5--7s~----|
--7----7----7--9--10----------|--6----6----6--7--9------------|
------------------------------|-------------------------------|


            PM PM PM PM
  Q    Q    S  S  S  S  Q        Q    Q    Q    Q
------------------------------|----------------------|
------------------------------|----------------------|
------------------------------|----------------------|
--5----5-------------3--5~----|--4----5----4----5----|
--3----3----3--5--6-----------|--2----3----2----3----|
------------------------------|----------------------|


             PM PM  PMPM                    PM PM PM PM
  E  E  Q    S  S   S S  Q        Q    Q    S  S  S  S  Q
-------------------------------|-------------------------------|
-------------------------------|-------------------------------|
-------------------------------|-------------------------------|
--9--9--9-------------7--9~----|--8----8-------------5--7s~----|
--7--7--7----7--9--10----------|--6----6----6--7--9------------|
-------------------------------|-------------------------------|


            PM PM PM PM
  Q    Q    S  S  S  S  Q        Q    Q    Q    Q       Q     E  Q    E  E  E
------------------------------|----------------------|-------------------------|
------------------------------|----------------------|-------------------------|
------------------------------|----------------------|-------------------------|
--5----5-------------3--5~----|--4----5----4----5----|--9~---------------9-----|
--3----3----3--5--6-----------|--2----3----2----3----|--------7-------7-----7--|
------------------------------|----------------------|-----------7-------------|


  Q     E  Q    E  E  E     Q     E  Q    E  E  E     Q    Q    Q    Q
-------------------------|-------------------------|----------------------|
-------------------------|-------------------------|----------------------|
-------------------------|-------------------------|----------------------|
--8~---------------8-----|--5~---------------5-----|--4----5----4----5----|
--------6-------6-----6--|--------3-------3-----3--|--2----3----2----3----|
-----------6-------------|-----------3-------------|----------------------|


  Q     E  Q    E  E  E     Q     E  Q    E  E  E     Q     E  Q    E  E  E
-------------------------|-------------------------|-------------------------|
-------------------------|-------------------------|-------------------------|
-------------------------|-------------------------|-------------------------|
--9~---------------9-----|--8~---------------8-----|--5~---------------5-----|
--------7-------7-----7--|--------6-------6-----6--|--------3-------3-----3--|
-----------7-------------|-----------6-------------|-----------3-------------|


  Q    Q    Q    Q       S S S S  S  S  S  S S S S S  S  S  S  S
----------------------|------------------------------------------|
----------------------|------------------------------------------|
----------------------|------------------------------------------|
--4----5----4----5----|----------------------9-9-9-9-------------|
--2----3----2----3----|--7-7-7-7-10-10-10-10---------10-10-10-10-|
----------------------|------------------------------------------|


  S S S S S S S S S S S S S S S S    S S S S S S S S S S S S S S S S
----------------------------------|----------------------------------|
----------------------------------|----------------------------------|
----------------------------------|----------------------------------|
------------------7-7-7-7---------|------------------5-5-5-5---------|
--6-6-6-6-9-9-9-9---------9-9-9-9-|--3-3-3-3-6-6-6-6---------6-6-6-6-|
----------------------------------|----------------------------------|


  Q    Q    Q    Q       S S S S  S  S  S  S S S S S  S  S  S  S
----------------------|------------------------------------------|
----------------------|------------------------------------------|
----------------------|------------------------------------------|
--4----5----4----5----|----------------------9-9-9-9-------------|
--2----3----2----3----|--7-7-7-7-10-10-10-10---------10-10-10-10-|
----------------------|------------------------------------------|


  S S S S S S S S S S S S S S S S    S S S S S S S S S S S S S S S S
----------------------------------|----------------------------------|
----------------------------------|----------------------------------|
----------------------------------|----------------------------------|
------------------7-7-7-7---------|------------------5-5-5-5---------|
--6-6-6-6-9-9-9-9---------9-9-9-9-|--3-3-3-3-6-6-6-6---------6-6-6-6-|
----------------------------------|----------------------------------|


                                                             PM PM
  Q    Q    Q    Q       Q    Q    Q    Q       H.           E  E
----------------------|----------------------|---------------------|
----------------------|----------------------|---------------------|
----------------------|----------------------|---------------------|
--4----5----4----5----|--4----5----4----5----|---------------------|
--2----3----2----3----|--2----3----2----3----|--2------------------|
----------------------|----------------------|--0------------0--0--|


  W                   W                   S S E  S S E   Q    E  E
-------------------|-------------------|----------------------------|
-------------------|-------------------|----------------------------|
-------------------|-------------------|----------------------------|
--8----------------|-------------------|--7-7-7--9-9-9--10----9--7--|
--6----------------|--2----------------|--5-5-5--7-7-7---8----7--5--|
-------------------|--0----------------|----------------------------|


  E  S S E  E  E  E  E  E     E  S S E  E  E  E  E  E
---------------------------|---------------------------|
---------------------------|---------------------------|
---------------------------|---------------------------|
---------------5-----------|---------------5-----------|
------------5-----5--0--5--|------------5-----5--0--5--|
--0--0-0-0-----------------|--0--0-0-0-----------------|


  E  S S E  E  E  E  E  E      H         Q     Q       W
----------------------------|-----------------------|-------------------|
----------------------------|-----------------------|-------------------|
----------------------------|-----------------------|-------------------|
---------------5------------|-----------------------|-------------------|
------------5-----5--0--5s--|--8~--------7s----5----|--8----------------|
--0--0-0-0------------------|-----------------------|--6----------------|


  W                   W                   Q    Q    Q    E   E
-------------------|-------------------|------------------------|
-------------------|-------------------|------------------------|
-------------------|-------------------|------------------------|
-------------------|-------------------|------------------------|
--7----------------|--8----------------|--5----7----8----7s--5--|
--5----------------|--6----------------|------------------------|


               PM PM
  H.           E  E     W                   W
---------------------|-------------------|-------------------|
---------------------|-------------------|-------------------|
---------------------|-------------------|-------------------|
---------------------|--8----------------|-------------------|
--2------------------|--6----------------|--2----------------|
--0------------0--0--|-------------------|--0----------------|


  S S E  S S E   Q    E  E     E  S S E   E   E   E  E   E
----------------------------|-------------------------------|
----------------------------|-------------------------------|
----------------------------|-------------------------------|
--7-7-7--9-9-9--10----9--7--|----------------15-------------|
--5-5-5--7-7-7---8----7--5--|------------13------13--0--13--|
----------------------------|--0--0-0-0---------------------|


  E  S S E   E   E   E  E   E     E  S S E   E   E   E  E   E
-------------------------------|--------------------------------|
-------------------------------|--------------------------------|
-------------------------------|--------------------------------|
----------------14-------------|----------------15--------------|
------------12------12--0--12--|------------13------13--0--13s--|
--0--0-0-0---------------------|--0--0-0-0----------------------|


  H         Q     Q       S S S S S S S S S S S S S S S S
-----------------------|----------------------------------|
-----------------------|----------------------------------|
-----------------------|----------------------------------|
-----------------------|----------------------------------|
--8~--------7s----5----|----------------------------------|
-----------------------|--6-6-6-6-6-6-6-6-6-6-6-6-6-6-6-6-|


  S S S S S S S S S S S S S S S S    S S S S S S S S S S S S S S S S
----------------------------------|----------------------------------|
----------------------------------|----------------------------------|
----------------------------------|----------------------------------|
----------------------------------|----------------------------------|
----------------------------------|----------------------------------|
--5-5-5-5-5-5-5-5-5-5-5-5-5-5-5-5-|--6-6-6-6-6-6-6-6-6-6-6-6-6-6-6-6-|


  Q    Q     Q    E   E     H           E   Q     E     W
-------------------------|---------------------------|--------------------|
-------------------------|---------------------------|--------------------|
--7----9----10----9---7--|--9br---------9--11----12--|--8-----------------|
-------------------------|---------------------------|--------------------|
--5----7-----8----7s--5--|--7br~--------7---9----10--|--6~----------------|
-------------------------|---------------------------|--------------------|


  S S S S S S S S S S S S  S  S  S  S
--------------------------------------|
--------------------------------------|
--------------------------------------|
--------------------------------------|
--7-7-7-7-7-7-7-7-9-9-9-9-10-10-10-10-|
--------------------------------------|


                                              whammy bar
  S S S S S S S S  S  S  S  S  S  S  S  S     W
------------------------------------------|---------------------|
------------------------------------------|--11-----------------|
------------------------------------------|---------------------|
--9-9-9-9-9-9-9-9-10-10-10-10-10-10-10-10-|---8b----------------|
------------------------------------------|---------------------|
------------------------------------------|---------------------|


   W
---------------------|
--10-----------------|
---------------------|
---7b----------------|
---------------------|
---------------------|


   pick tap
   T       T  T T  T T  T T  T T  T T  T T  T T  T T  T T  T T  T T  T T  T T  T
---------------------------------------------------------------------------------|
---------------------------------------------------------------------------------|
---------------------------------------------------------------------------------|
--11-------8-11-8-11-8-11-8-11-8-11-8-11-8-11-8-10-7-10-7-10-7-10-7-11-8-11-8-11-|
---------------------------------------------------------------------------------|
---------------------------------------------------------------------------------|


   T T  T T  T T  T T  T T  T T  T T  T T  T  T  T  T  T  T  T  T  T  T  T  T  T
------------------------------------------------------------------15-12-15-12-15-|
------------------------------------------14-11-14-11-14-11-14-11----------------|
--12-9-12-9-12-9-12-9-12-9-12-9-12-9-12-9----------------------------------------|
---------------------------------------------------------------------------------|
---------------------------------------------------------------------------------|
---------------------------------------------------------------------------------|


  finger tap
  S          S  S  S S  S  S  S S  S  S  S S  S  S  S
--8p---------5p-1p-0-8p-5p-1p-0-8p-5p-1p-0-8p-5p-1p-0-|
------------------------------------------------------|
------------------------------------------------------|
------------------------------------------------------|
------------------------------------------------------|
------------------------------------------------------|


  S  S  S  S S  S  S  S S  S  S  S S  S  S  S
--7p-5p-1p-0-7p-5p-1p-0-7p-5p-1p-0-7p-5p-1p-0-|
----------------------------------------------|
----------------------------------------------|
----------------------------------------------|
----------------------------------------------|
----------------------------------------------|


  S  S  S  S S  S  S  S S  S  S  S S  S  S  S
--8p-5p-1p-0-8p-5p-1p-0-8p-5p-1p-0-8p-5p-1p-0-|
----------------------------------------------|
----------------------------------------------|
----------------------------------------------|
----------------------------------------------|
----------------------------------------------|


  T  T  T  T T  T  T  T T  T  T  T T  T  T  T  T  T  T  T  T  T  T  T  T  T  T
--8p-5p-1p-0-8p-5p-1p-0-9p-6p-2p-0-9p-6p-2p-0-10p-7p-3p-0-10p-7p-3p-0-11p-8p-4p-|
--------------------------------------------------------------------------------|
--------------------------------------------------------------------------------|
--------------------------------------------------------------------------------|
--------------------------------------------------------------------------------|
--------------------------------------------------------------------------------|


   W                    W                   W
--12-----------------|--L----------------|--L----------------|
--11~----------------|--L----------------|--L----------------|
---------------------|-------------------|-------------------|
---------------------|-------------------|-------------------|
---------------------|-------------------|-------------------|
---------------------|-------------------|-------------------|


                      -\1                 -\1
  W                   W                   W
--L----------------|-------------------|-------------------|
--L----------------|--3----------------|--5----------------|
-------------------|--3----------------|--5----------------|
-------------------|-------------------|--5----------------|
-------------------|-------------------|-------------------|
-------------------|-------------------|-------------------|


  -\1
  H.           E  E     E  E  E  E   E   E  E  E     E  E  E  E  E  Q.
---------------------|----------------------------|------------------------|
---------------------|----------------------------|------------------------|
---------------------|----------------------------|------------------------|
---------------------|-----8--9-----12--11-----8--|--9-----8--9-----8------|
---------------8--9--|-----6--7-----10---9-----6--|--7-----6--7-----6------|
--0------------6--7--|----------------------------|------------------------|


     PM PM PM PM PM PM PM             PM PM PM PM PM PM PM
  E  S  S  E  S  S  E  E  E  E     E  S  S  E  S  S  E  E  E  E
--------------------------------|--------------------------------|
--------------------------------|--------------------------------|
--------------------------------|--------------------------------|
--------------------------------|--------------------------------|
--2-----------------------8--9--|--2-----------------------9--8--|
--0--0--0--0--0--0--0--0--6--7--|--0--0--0--0--0--0--0--0--7--6--|


     PM PM PM PM PM PM PM
  E  S  S  E  S  S  E  E  E  E     E  E  E  E   E   E  E  E
--------------------------------|----------------------------|
--------------------------------|----------------------------|
--------------------------------|----------------------------|
--------------------------------|-----8--9-----12--11-----8--|
--2-----------------------8--9--|-----6--7-----10---9-----6--|
--0--0--0--0--0--0--0--0--6--7--|----------------------------|


                              PM PM PM PM PM PM PM
  E  E  E  E  E  Q.        E  S  S  E  S  S  E  E  E  E
------------------------|--------------------------------|
------------------------|--------------------------------|
------------------------|--------------------------------|
--9-----8--9-----8------|--------------------------------|
--7-----6--7-----6------|--2-----------------------8--9--|
------------------------|--0--0--0--0--0--0--0--0--6--7--|


     PM PM PM PM PM PM PM             PM PM PM PM PM PM PM
  E  S  S  E  S  S  E  E  E  E     E  S  S  E  S  S  E  E  E  E
--------------------------------|--------------------------------|
--------------------------------|--------------------------------|
--------------------------------|--------------------------------|
--------------------------------|--------------------------------|
--2-----------------------9--8--|--2-----------------------8--9--|
--0--0--0--0--0--0--0--0--7--6--|--0--0--0--0--0--0--0--0--6--7--|


  E  E  E  E   E   E  E  E     E  E  E  E  E  Q.
----------------------------|------------------------|
----------------------------|------------------------|
----------------------------|------------------------|
-----8--9-----12--11-----8--|--9-----8--9-----8------|
-----6--7-----10---9-----6--|--7-----6--7-----6------|
----------------------------|------------------------|


     PM PM PM PM PM             PM PM PM PM PM
  E  E  E  E  E  E  E  E     E  E  E  E  E  E  E  E
--------------------------|--------------------------|
--------------------------|--------------------------|
--------------------------|--------------------------|
--------------------------|--------------------------|
--2-----------------8--9--|--2-----------------9--8--|
--0--0--0--0--0--0--6--7--|--0--0--0--0--0--0--7--6--|


     PM PM PM PM PM
  E  E  E  E  E  E  E  E     E  E  E  E   E   E  E  E
--------------------------|----------------------------|
--------------------------|----------------------------|
--------------------------|----------------------------|
--------------------------|-----8--9-----12--11-----8--|
--2-----------------8--9--|-----6--7-----10---9-----6--|
--0--0--0--0--0--0--6--7--|----------------------------|


                              PM PM PM PM PM PM PM
  E  E  E  E  E  Q.        E  S  S  E  S  S  E  E  Q
------------------------|-------------------------------|
------------------------|-------------------------------|
------------------------|-------------------------------|
--9-----8--9-----8------|-------------------------------|
--7-----6--7-----6------|--2-----------------------3----|
------------------------|--0--0--0--0--0--0--0--0--1----|


     PM PM PM PM PM PM PM             PM PM PM PM PM PM PM
  E  S  S  E  S  S  E  E  E  E     E  S  S  E  S  S  E  E  Q
--------------------------------|-------------------------------|
--------------------------------|-------------------------------|
--------------------------------|-------------------------------|
--------------------------------|-------------------------------|
--2-----------------------3--3--|--2-----------------------3----|
--0--0--0--0--0--0--0--0--1--1--|--0--0--0--0--0--0--0--0--1----|


  PM PM PM PM PM PM PM PM       PM PM PM PM PM PM PM
  E  E  E  E  E  E  E  E     E  S  S  E  S  S  E  E  Q
--------------------------|-------------------------------|
--------------------------|-------------------------------|
--------------------------|-------------------------------|
--------------------------|-------------------------------|
--5--4--3--2--2--3--4--3--|--2-----------------------3----|
--3--2--1--0--0--1--2--1--|--0--0--0--0--0--0--0--0--1----|


     PM PM PM PM PM PM PM             PM PM PM PM PM PM PM
  E  S  S  E  S  S  E  E  E  E     E  S  S  E  S  S  E  E  Q
--------------------------------|-------------------------------|
--------------------------------|-------------------------------|
--------------------------------|-------------------------------|
--------------------------------|-------------------------------|
--2-----------------------3--3--|--2-----------------------3----|
--0--0--0--0--0--0--0--0--1--1--|--0--0--0--0--0--0--0--0--1----|


  PM PM PM PM PM PM PM PM       PM PM PM PM PM PM PM PM PM PM
  E  E  E  E  E  E  E  E     E  S  S  S  S  S  S  S  S  S  S   Q
--------------------------|-----------------------------------------|
--------------------------|-----------------------------------------|
--------------------------|-----------------------------------------|
--------------------------|-----------------------------------------|
--5--4--3--2--2--3--4--3--|--9--------------------------------10----|
--3--2--1--0--0--1--2--1--|--7--7--7--7--7--7--7--7--7--7--7---8----|


     PM PM PM PM PM PM PM PM PM PM
  E  S  S  S  S  S  S  S  S  S  S   E   E
-------------------------------------------|
-------------------------------------------|
-------------------------------------------|
-------------------------------------------|
--9--------------------------------10--10--|
--7--7--7--7--7--7--7--7--7--7--7---8---8--|


     PM PM PM PM PM PM PM PM PM PM          PM PM PM PM PM PM PM PM
  E  S  S  S  S  S  S  S  S  S  S   Q       E  E  E  E  E  E  E  E
-----------------------------------------|--------------------------|
-----------------------------------------|--------------------------|
-----------------------------------------|--------------------------|
-----------------------------------------|--------------------------|
--9--------------------------------10----|--5--4--3--2--2--3--4--3--|
--7--7--7--7--7--7--7--7--7--7--7---8----|--3--2--1--0--0--1--2--1--|


     PM PM PM PM PM PM PM            PM PM PM PM PM PM PM
  E  S  S  E  S  S  E  E  Q       E  S  S  E  S  S  E  E  E  E
-------------------------------|--------------------------------|
-------------------------------|--------------------------------|
-------------------------------|--------------------------------|
-------------------------------|--------------------------------|
--2-----------------------3----|--2-----------------------3--3--|
--0--0--0--0--0--0--0--0--1----|--0--0--0--0--0--0--0--0--1--1--|


     PM PM PM PM PM PM PM         PM PM PM PM PM PM PM PM
  E  S  S  E  S  S  E  E  Q       E  E  E  E  E  E  E  E
-------------------------------|--------------------------|
-------------------------------|--------------------------|
-------------------------------|--------------------------|
-------------------------------|--------------------------|
--2-----------------------3----|--5--4--3--2--2--3--4--3--|
--0--0--0--0--0--0--0--0--1----|--3--2--1--0--0--1--2--1--|


            PM PM  PMPM                    PM PM PM PM
  Q    Q    S  S   S S  Q        Q    Q    S  S  S  S  Q
------------------------------|-------------------------------|
------------------------------|-------------------------------|
------------------------------|-------------------------------|
--9----9-------------7--9~----|--8----8-------------5--7s~----|
--7----7----7--9--10----------|--6----6----6--7--9------------|
------------------------------|-------------------------------|


            PM PM PM PM
  Q    Q    S  S  S  S  Q        Q    Q    Q    Q
------------------------------|----------------------|
------------------------------|----------------------|
------------------------------|----------------------|
--5----5-------------3--5~----|--4----5----4----5----|
--3----3----3--5--6-----------|--2----3----2----3----|
------------------------------|----------------------|


             PM PM  PMPM                    PM PM PM PM
  E  E  Q    S  S   S S  Q        Q    Q    S  S  S  S  Q
-------------------------------|-------------------------------|
-------------------------------|-------------------------------|
-------------------------------|-------------------------------|
--9--9--9-------------7--9~----|--8----8-------------5--7s~----|
--7--7--7----7--9--10----------|--6----6----6--7--9------------|
-------------------------------|-------------------------------|


            PM PM PM PM
  Q    Q    S  S  S  S  Q        Q    Q    Q    Q       Q     E  Q    E  E  E
------------------------------|----------------------|-------------------------|
------------------------------|----------------------|-------------------------|
------------------------------|----------------------|-------------------------|
--5----5-------------3--5~----|--4----5----4----5----|--9~---------------9-----|
--3----3----3--5--6-----------|--2----3----2----3----|--------7-------7-----7--|
------------------------------|----------------------|-----------7-------------|


  Q     E  Q    E  E  E     Q     E  Q    E  E  E     Q    Q    Q    Q
-------------------------|-------------------------|----------------------|
-------------------------|-------------------------|----------------------|
-------------------------|-------------------------|----------------------|
--8~---------------8-----|--5~---------------5-----|--4----5----4----5----|
--------6-------6-----6--|--------3-------3-----3--|--2----3----2----3----|
-----------6-------------|-----------3-------------|----------------------|


  Q     E  Q    E  E  E     Q     E  Q    E  E  E     Q     E  Q    E  E  E
-------------------------|-------------------------|-------------------------|
-------------------------|-------------------------|-------------------------|
-------------------------|-------------------------|-------------------------|
--9~---------------9-----|--8~---------------8-----|--5~---------------5-----|
--------7-------7-----7--|--------6-------6-----6--|--------3-------3-----3--|
-----------7-------------|-----------6-------------|-----------3-------------|


  Q    Q    Q    Q       S S S S  S  S  S  S S S S S  S  S  S  S
----------------------|------------------------------------------|
----------------------|------------------------------------------|
----------------------|------------------------------------------|
--4----5----4----5----|----------------------9-9-9-9-------------|
--2----3----2----3----|--7-7-7-7-10-10-10-10---------10-10-10-10-|
----------------------|------------------------------------------|


  S S S S S S S S S S S S S S S S    S S S S S S S S S S S S S S S S
----------------------------------|----------------------------------|
----------------------------------|----------------------------------|
----------------------------------|----------------------------------|
------------------7-7-7-7---------|------------------5-5-5-5---------|
--6-6-6-6-9-9-9-9---------9-9-9-9-|--3-3-3-3-6-6-6-6---------6-6-6-6-|
----------------------------------|----------------------------------|


  Q    Q    Q    Q       S S S S  S  S  S  S S S S S  S  S  S  S
----------------------|------------------------------------------|
----------------------|------------------------------------------|
----------------------|------------------------------------------|
--4----5----4----5----|----------------------9-9-9-9-------------|
--2----3----2----3----|--7-7-7-7-10-10-10-10---------10-10-10-10-|
----------------------|------------------------------------------|


  S S S S S S S S S S S S S S S S    S S S S S S S S S S S S S S S S
----------------------------------|----------------------------------|
----------------------------------|----------------------------------|
----------------------------------|----------------------------------|
------------------7-7-7-7---------|------------------5-5-5-5---------|
--6-6-6-6-9-9-9-9---------9-9-9-9-|--3-3-3-3-6-6-6-6---------6-6-6-6-|
----------------------------------|----------------------------------|


                                                   PM PM PM    PM PM
  Q    Q    Q    Q       Q    Q    Q    Q       E  E  E  E  E  E  E  E
----------------------|----------------------|--------------------------|
----------------------|----------------------|--------------------------|
----------------------|----------------------|--------------8-----------|
--4----5----4----5----|--4----5----4----5----|--8-----------------------|
--2----3----2----3----|--2----3----2----3----|-----6--0--6-----------9--|
----------------------|----------------------|-----------------0--7-----|


        PM PM    PM PM PM       PM PM          PM PM
  E  E  E  E  E  E  E  E     E  E  E  E  E  E  E  E
--------------------------|--------------------------|
--------------------------|--------------------------|
--------------------------|--8-----------------------|
--------------8-----------|--------------------------|
--0--8-----------6--0--6--|-----------9--0--8--------|
--------6--0--------------|-----0--7-----------6--0--|


     PM PM PM    PM PM             PM PM    PM PM PM
  E  E  E  E  E  E  E  E     E  E  E  E  E  E  E  E
--------------------------|--------------------------|
--------------------------|--------------------------|
--------------8-----------|--------------------------|
--8-----------------------|--------------8-----------|
-----6--0--6-----------9--|--0--8-----------6--0--6--|
-----------------0--7-----|--------6--0--------------|


     PM PM          PM PM
  E  E  E  E  E  E  E  E     W                   W
--------------------------|-------------------|-------------------|
--------------------------|-------------------|-------------------|
--8-----------------------|-------------------|-------------------|
--------------------------|--8----------------|--L----------------|
-----------9--0--8--------|--6----------------|--L----------------|
-----0--7-----------6--0--|-------------------|-------------------|


  W                   W                   W                   W
-------------------|-------------------|-------------------|-------------------|
-------------------|-------------------|-------------------|-------------------|
-------------------|-------------------|-------------------|-------------------|
--L----------------|--L----------------|--L----------------|--L----------------|
--L----------------|--L----------------|--L----------------|--L----------------|
-------------------|-------------------|-------------------|-------------------|


  W                   W                   W
-------------------|-------------------|-------------------|
-------------------|-------------------|-------------------|
-------------------|-------------------|-------------------|
--L----------------|--L----------------|--L----------------|
--L----------------|--L----------------|--L----------------|
-------------------|-------------------|-------------------|


  W
-------------------||
-------------------||
-------------------||
--L----------------||
--L----------------||
-------------------||




************************************

Duration Legend
---------------
W - whole
H - half
Q - quarter
E - 8th
S - 16th
T - 32nd
X - 64th
. - note dotted
|-n-|  - n-tuplets


Tablature Legend
----------------
L - tied note
x - dead note
g - grace note
(n) - ghost note
> - accentuded note
NH - natural harmonic
AH - artificial harmonic
TH - tapped harmonic
SH - semi harmonic
PH - pitch harmonic
h - hammer on
p - pull off
b - bend
br - bendRelease
pb - preBend
pbr - preBendRelease
brb - bendReleaseBend
\n/ - tremolo bar dip
\n - tremolo bar dive
-/n - tremolo bar Release up
/n\ - tremolo bar inverted dip
/n - tremolo bar return
-\n - tremolo bar Release down
S - shift slide
s - legato slide
/ -  slide into from below or out of upwards
\ -  slide into from above or out of downwards
~ - vibrato
W - wide vibrato
tr - tril'
TP - tremolo picking
T - tapping
S - slap
P - pop
< - fade in
^ - brush up
v - brush down

************************************
Tap to rate this tab
 
# A B C D E F G H I J K L M N O P Q R S T U V W X Y Z