Song name
# A B C D E F G H I J K L M N O P Q R S T U V W X Y Z

Ruth Jacott - Leun Op Mij tab

Ruth Jacott  -  Leun op mij


Chords used:
D      xx0232
Dsus2  xx0230
A      x02220
E      022100
F#m    244222
C#m    x46654




INTRO
e |-----0-----0---|-----0-------0-|----------|----|
B |---0-----0---0-|---0-------0---|-3~---3p2-|----|
G |-2-----1-------|---------2-----|-2~-------|-2~-|
D |---------------|-4-----2-------|----------|----|
A |---------------|---------------|----------|----|
E |---------------|---------------|----------|----|

e |-----0-----0---|-----0------0-|---------------|----|
B |---0-----0---0-|---0-------0--|---3-3-3-3-3p2-|----|
G |-2-----1-------|---------2----|---------------|-2~-|
D |---------------|-4-----2------|-0-------------|----|
A |---------------|--------------|---------------|----|
E |---------------|--------------|---------------|----|


e |---------------------------------------|
B |-2---0-3----0-2--0-3----0-2--0-3---2---|
G |-2---2-2----2-2--2-2----2-2--2-2---2---|
D |---------------------------------------|
A |-0---0-0---0-----0-0---0-----0-0--0----|
E |---------------------------------------|

VERSE (riff 1 to 3)

Riff 1
e |-------------------------------------------|
B |-2---0-3----0-2--0-3----0-2--0-3---0-3-2---|
G |-2---2-2----2-2--2-2----2-2--2-2-------2---|
D |-------------------------------------------|
A |-0---0-0---0-----0-0---0-----0-0--0----0---|
E |-------------------------------------------|

Riff 2
e |-----------------------2--0-0-0h2-2---|
B |-2---0-3----0-2--0-3---3--3-2---------|
G |-2---2-2----2-2--2-2---2--2-2---------|
D |-----------------------0-0--------0---|
A |-0---0-0---0-----0-0------------------|
E |--------------------------------------|

Riff 3a
e |---------------------------------------|
B |-2---0-3----0-2--0-3---2--0-3----2-----|
G |-2---2-2----2-2--2-2---2--2-2----2-----|
D |---------------------------------------|
A |-0---0-0---0-----0-0---0--0-0---0------|
E |---------------------------------------|

Riff 3b
e |----------------------|  (and now go into the chorus)
B |-2---0-3---0-2--0-3---|
G |-2---2-2---2-2--2-2---|
D |----------------------|
A |-0---0-0---0-0--0-0---|
E |----------------------|


Riff 3c
e |---------------------|  (bridge, then chorus)
B |-2---0-3----0-2--0-3-|
G |-2---2-2----2-2--2-2-|
D |---------------------|
A |-0---0-0---0-----0-0-|
E |---------------------|



CHORUS
E D A A
E D A A
F#m C#m D (Dsus2 - D)
F#m (play some random strings in F#m) D-riff
F#m (play some random strings in F#m) D-riff

                        D riff is like 3th measure of intro


BRIDGE
F#m D Bm D




LYRICS

Intro           (du du du...)

Riff 1            Als het lijkt alsof niemand naar je kijkt
Riff 2            Als je denkt dat iedereen je soms ontwijkt
Riff 3a          Leun op mij

Riff 1            Als de kleuren die je draagt niet van jou zijn
Riff 2            Als de dingen om je heen weer veel te grauw zijn
Riff 3b          Leun op mij

Chorus
                  Kom maar hier en leun op mij
                Kijk niet terug maar kijk naar mij
                Al het wachten is voorbij
                Leun op mij
                Leun op mij

Riff 1            Als het lijkt alsof niemand om je geeft
Riff 2            Als niet meer weet waarom je eigenlijk leeft
Riff 3c          Leun op mij

Bridge
                  En als je hart gebroken is
                Leun op mij

Chorus
                  Kom maar hier en leun op mij
                Kijk niet terug maar kijk naar mij
                Al het wachten is voorbij
                Leun op mij
                Leun op mij

Repeat Chorus



LYRICS (free translation)

When it feels like no one there is seeing you
When you think that everyone's avoiding you
Lean on me

When the colours that you wear don't belong
When the things you see around you are just wrong
Lean on me

Oh come here and lean on me
Don't look back just look at me
All the waiting is gone
Lean on me
Lean on me

when it feels like no one there cares for you
when it feels like your whole life is just too blue
Lean on me

And when your heart is broken
Lean on me

Oh come here and lean on me
Don't look back just look at me
All the waiting is gone
Lean on me
Lean on me

Just come here and lean on me
Don't look back just look at me
All the waiting is gone
Lean on me
Lean on me
Tap to rate this tab
 
# A B C D E F G H I J K L M N O P Q R S T U V W X Y Z