Song name
# A B C D E F G H I J K L M N O P Q R S T U V W X Y Z

Ruth - Mr Turner tab

So this is my first tab, but I had some help on it so I think its mainly right.

verse
e|------------------------------------------------------------------------|
B|----2---3---0--------------------------2---3---0------------------------|
G|----------------2----2--0---------------------------2------------2--0---|
D|---------------------------4--2--0----------------------0--2--4---------|
A|--0---0---0---0---0-------------------0---0---0---0---0-----------------|
E|------------------------------------------------------------------------|

e|-----------------------------------------------------------------|
B|----2---3---0---------------------------2---3---0----------------|
G|----------------2----2--0---------------------------2------------|
D|---------------------------4--2--0-------------------------------|
A|--0---0---0---0---0--------------------0---0---0---0-------------|
E|-----------------------------------------------------------------|x2

chorus
  G                 D/F#          Em9   
e|------------------------------------------------|
B|-----------3-------------3-------------3--------|
G|-----0-----0-------2-----2-------0-----0--------|
D|--------0-------------0-------------2-----------|
A|------------------------------------------------|
E|--3--------------2-------------0----------------|x3 
 G                         A        
e|-----------------------------------------------------|
B|-----------3--3------3-------2-----3--3-----2--------|
G|-----0-----0--0------0-------2-----2--2-----2--------|
D|--------0-----------------------2--------------------|
A|--------------------------0--------------0-----------|
E|--3---------------3----------------------------------|

play verse

play chorus

then
e|----------------------------------|
B|-7-7-7-7-7-7-7-7-7-7-7-7-7-7-7-8--|
G|-7-7-7-7-7-7-7-7-7-7-7-7-7-7-7-7--|
D|-7-7-7-7-7-7-7-7-7-7-7-7-7-7-7-7--|
A|-5-5-5-5-5-5-5-5-5-5-5-5-5-5-5-5--|
E|----------------------------------|


   D x16                           G x16
e|----------------------------------3-3-3-3-3-3-3-3-3-3-3-3-3-3-3-3-|
B|-7-7-7-7-7-7-7-7-7-7-7-7-7-7-7-8--3-3-3-3-3-3-3-3-3-3-3-3-3-3-3-3-|
G|-7-7-7-7-7-7-7-7-7-7-7-7-7-7-7-7--4-4-4-4-4-4-4-4-4-4-4-4-4-4-4-4-|
D|-7-7-7-7-7-7-7-7-7-7-7-7-7-7-7-7--5-5-5-5-5-5-5-5-5-5-5-5-5-5-5-5-|
A|-5-5-5-5-5-5-5-5-5-5-5-5-5-5-5-5--5-5-5-5-5-5-5-5-5-5-5-5-5-5-5-5-|
E|----------------------------------3-3-3-3-3-3-3-3-3-3-3-3-3-3-3-3-|
   Em x16                          A    
e|-0-0-0-0-0-0-0-0-0-0-0-0-0-0-0-0---------------------------------| 
B|-0-0-0-0-0-0-0-0-0-0-0-0-0-0-0-0--2-2-2-2-2-2-2-2-2-2-2-2-2-2-2-2|
G|-0-0-0-0-0-0-0-0-0-0-0-0-0-0-0-0--2-2-2-2-2-2-2-2-2-2-2-2-2-2-2-2|
D|-2-2-2-2-2-2-2-2-2-2-2-2-2-2-2-2--2-2-2-2-2-2-2-2-2-2-2-2-2-2-2-2|
A|-2-2-2-2-2-2-2-2-2-2-2-2-2-2-2-2--0-0-0-0-0-0-0-0-0-0-0-0-0-0-0-0|
E|-0-0-0-0-0-0-0-0-0-0-0-0-0-0-0-0---------------------------------|x3

 
  G x8              D/F# x8          Em9 x16  
e|-3-3-3-3-3-3-3-3--0-0-0-0-0-0-0-0--0-0-0-0-0-0-0-0-0-0-0-0-0-0-0-0|
B|-3-3-3-3-3-3-3-3--3-3-3-3-3-3-3-3--3-3-3-3-3-3-3-3-3-3-3-3-3-3-3-3|
G|-0-0-0-0-0-0-0-0--2-2-2-2-2-2-2-2--0-0-0-0-0-0-0-0-0-0-0-0-0-0-0-0|
D|-0-0-0-0-0-0-0-0--0-0-0-0-0-0-0-0--2-2-2-2-2-2-2-2-2-2-2-2-2-2-2-2|
A|-2-2-2-2-2-2-2-2--0-0-0-0-0-0-0-0--2-2-2-2-2-2-2-2-2-2-2-2-2-2-2-2|
E|-3-3-3-3-3-3-3-3--2-2-2-2-2-2-2-2--0-0-0-0-0-0-0-0-0-0-0-0-0-0-0-0|x3 

   G x16
e|-3-3-3-3-3-3-3-3-3-3-3-3-3-3-3-3-3----------------------------------|
B|-3-3-3-3-3-3-3-3-3-3-3-3-3-3-3-3-3---------2-----3--3-----2---------|
G|-0-0-0-0-0-0-0-0-0-0-0-0-0-0-0-0-0---------2-----2--2-----2---------|
D|-0-0-0-0-0-0-0-0-0-0-0-0-0-0-0-0-0------------2---------------------|
A|-2-2-2-2-2-2-2-2-2-2-2-2-2-2-2-2-2-------0--------------0-----------|
E|-3-3-3-3-3-3-3-3-3-3-3-3-3-3-3-3-3----------------------------------|

 
then play the verse once 
Tap to rate this tab
# A B C D E F G H I J K L M N O P Q R S T U V W X Y Z