Song name
# A B C D E F G H I J K L M N O P Q R S T U V W X Y Z

Ruth - Back To The Five tab

|------------------------|
|Artist: Ruth            |
|Track: Back to the Five |
|Album: Anorak           |
|Tabbed by: (Metaphor)   |
|------------------------|


Guitar 1 (Slight Distortion) - Intro (0:00)
e|--------------------------------------------------------------------------|
B|--------------------------------------------------------------------------|
G|--------------------------------------------------------------------------|
D|-12-12-12-12-12-12-12-12-12-12-12-12-12-12-9-9-9-9-9-9-9-9-9-9-11-11-11-11|
A|-10-10-10-10-10-10-10-10-10-10--9--9--9--9-7-7-7-7-7-7-7-7-7-7--9--9--9--9|
E|--------------------------------------------------------------------------|
PM  .  .  .  .  .  .  .  .  .  .  .  .  .  . . . . . . . . . . .  .  .  .  .  

Guitar 1
e|--------------------------------------------------------------------------|
B|--------------------------------------------------------------------------|
G|--------------------------------------------------------------------------|
D|-5-5-5-5-5-5-5-5-5-5-7-7-7-7-7-7-7-7-7-7----------------------------------|
A|-3-3-3-3-3-3-3-3-3-3-5-5-5-5-5-5-5-5-5-5----------------------------------|
E|--------------------------------------------------------------------------|
PM . . . . . . . . . . . . . . . . . . . .


Guitar 1 (Slight Distortion) - Verse 1 (0:13)
e|--------------------------------------------------------------------------|
B|--------------------------------------------------------------------------|
G|--------------------------------------------------------------------------|
D|-12-12-12-12-12-12-12-12-12-12-12-12-12-12-9-9-9-9-9-9-9-9-9-9-11-11-11-11|
A|-10-10-10-10-10-10-10-10-10-10--9--9--9--9-7-7-7-7-7-7-7-7-7-7--9--9--9--9|
E|--------------------------------------------------------------------------|
PM  .  .  .  .  .  .  .  .  .  .  .  .  .  . . . . . . . . . . .  .  .  .  . 

Guitar 2 (Clean) - Verse 1 (0:13)
e|-3~----------------------------------------0~-----------------------------|
B|-3~----------------------------------------0~-----------------------------|
G|-0~----------------------------------------0~-----------------------------|
D|-0~----------------------------------------2~-----------------------------|
A|-2~----------------------------------------2~-----------------------------|
E|-3~----------------------------------------0~-----------------------------|
   G					     Em

Guitar 1 
e|--------------------------------------------------------------------------|
B|--------------------------------------------------------------------------|
G|--------------------------------------------------------------------------|
D|-5-5-5-5-5-5-5-5-5-5-7-7-7-7-7-7-7-7-7-7----------------------------------|
A|-3-3-3-3-3-3-3-3-3-3-5-5-5-5-5-5-5-5-5-5----------------------------------|
E|--------------------------------------------------------------------------|
PM . . . . . . . . . . . . . . . . . . . .

Guitar 2				
e|-0~------------------2~---------------------------------------------------|
B|-1~------------------3~---------------------------------------------------|
G|-0~------------------2~---------------------------------------------------|
D|-2~------------------0~---------------------------------------------------|
A|-3~------------------0~---------------------------------------------------|
E|--------------------------------------------------------------------------|
   C		       D

Guitar 2 (Clean) - Prechorus (0:25)	
e|-0~------------------3~---------------------------------------------------|
B|-1~------------------3~---------------------------------------------------|
G|-0~------------------0~---------------------------------------------------|
D|-2~------------------0~---------------------------------------------------|
A|-3~------------------2~---------------------------------------------------|
E|---------------------3~---------------------------------------------------|
   C		       G

Guitar 1 (Slight Distortion) - Chorus (0:32)
e|-----------------------------------------------------x-x-x-x-----x-x-x-x-o|
B|-----------------------------------------------------x-x-x-x-----x-x-x-x-o|
G|-------------------------------------------------5-5-x-x-x-x-5-5-x-x-x-x-o|
D|-5-5-5-5-5-5-5-5---5-5-------------7-7-7-7-7-7-7-5-5-x-x-x-x-5-5-x-x-x-x-o|
A|-5-5-5-5-5-5-5-5-------5-2h3p2-----7-7-7-7-7-7-7-3-3-x-x-x-x-3-3-x-x-x-x-o|
E|-3-3-3-3-3-3-3-3---------------3h5-5-5-5-5-5-5-5-----x-x-x-x-----x-x-x-x-o|

Guitar 2 (Clean) - Chorus (0:32)	
e|-3-3-3-3-3-3-3-3-0-0-0-0-0-0-0-0-----------------0-0-x-x-x-x-0-0-x-x-x-x-o|
B|-3-3-3-3-3-3-3-3-1-1-1-1-1-1-1-1-1-1-1-1-1-1-1-1-1-1-x-x-x-x-1-1-x-x-x-x-o|
G|-0-0-0-0-0-0-0-0-0-0-0-0-0-0-0-0-2-2-2-2-2-2-2-2-0-0-x-x-x-x-0-0-x-x-x-x-o|
D|-0-0-0-0-0-0-0-0-2-2-2-2-2-2-2-2-2-2-2-2-2-2-2-2-2-2-x-x-x-x-2-2-x-x-x-x-o|
A|-2-2-2-2-2-2-2-2-3-3-3-3-3-3-3-3-----------------3-3-x-x-x-x-3-3-x-x-x-x-o|
E|-3-3-3-3-3-3-3-3-------------------------------------x-x-x-x-----x-x-x-x-o|

Guitar 1 (Slight Distortion) - Verse 2 (0:58)
e|--------------------------------------------------------------------------|
B|--------------------------------------------------------------------------|
G|--------------------------------------------------------------------------|
D|-12-12-12-12-12-12-12-12-12-12-12-12-12-12-9-9-9-9-9-9-9-9-9-9-11-11-11-11|
A|-10-10-10-10-10-10-10-10-10-10--9--9--9--9-7-7-7-7-7-7-7-7-7-7--9--9--9--9|
E|--------------------------------------------------------------------------|
PM  .  .  .  .  .  .  .  .  .  .  .  .  .  . . . . . . . . . . .  .  .  .  .

Guitar 2 (Clean) - Verse 2 (0:58)
e|-3~----------------------------------------0~-----------------------------|
B|-3~----------------------------------------0~-----------------------------|
G|-0~----------------------------------------0~-----------------------------|
D|-0~----------------------------------------2~-----------------------------|
A|-2~----------------------------------------2~-----------------------------|
E|-3~----------------------------------------0~-----------------------------|
   G					     Em

Guitar 1 
e|--------------------------------------------x-x---------------------------|
B|--------------------------------------------x-x---------------------------|
G|--------------------------------------------x-x---------------------------|
D|-5-5-5-5-5-5-5-5-5-5-7-7-7-7-7-7-7-7-7-7~---x-x---------------------------|
A|-3-3-3-3-3-3-3-3-3-3-5-5-5-5-5-5-5-5-5-5~---x-x---------------------------|
E|--------------------------------------------x-x---------------------------|
PM . . . . . . . . . . . . . . . . . . . 

Guitar 2				
e|-0~------------------2~---------------------x-x---------------------------|
B|-1~------------------3~---------------------x-x---------------------------|
G|-0~------------------2~---------------------x-x---------------------------|
D|-2~------------------0~---------------------x-x---------------------------|
A|-3~------------------0~---------------------x-x---------------------------|
E|--------------------------------------------x-x---------------------------|
   C		       D

Guitar 1 (Slight Distortion) - Chorus (1:21)		  
e|-----------------------------------------------------x-x-x-x-----x-x-x-x-o|
B|-----------------------------------------------------x-x-x-x-----x-x-x-x-o|
G|-------------------------------------------------5-5-x-x-x-x-5-5-x-x-x-x-o|
D|-5-5-5-5-5-5-5-5---5-5-------------7-7-7-7-7-7-7-5-5-x-x-x-x-5-5-x-x-x-x-o|
A|-5-5-5-5-5-5-5-5-------5-2h3p2-----7-7-7-7-7-7-7-3-3-x-x-x-x-3-3-x-x-x-x-o|
E|-3-3-3-3-3-3-3-3---------------3h5-5-5-5-5-5-5-5-----x-x-x-x-----x-x-x-x-o|

Guitar 2 (Clean) - Chorus (1:21)
e|-3-3-3-3-3-3-3-3-0-0-0-0-0-0-0-0-----------------0-0-x-x-x-x-0-0-x-x-x-x-o|
B|-3-3-3-3-3-3-3-3-1-1-1-1-1-1-1-1-1-1-1-1-1-1-1-1-1-1-x-x-x-x-1-1-x-x-x-x-o|
G|-0-0-0-0-0-0-0-0-0-0-0-0-0-0-0-0-2-2-2-2-2-2-2-2-0-0-x-x-x-x-0-0-x-x-x-x-o|
D|-0-0-0-0-0-0-0-0-2-2-2-2-2-2-2-2-2-2-2-2-2-2-2-2-2-2-x-x-x-x-2-2-x-x-x-x-o|
A|-2-2-2-2-2-2-2-2-3-3-3-3-3-3-3-3-----------------3-3-x-x-x-x-3-3-x-x-x-x-o|
E|-3-3-3-3-3-3-3-3-------------------------------------x-x-x-x-----x-x-x-x-o|

Guitar 1
e|-x-x-x-x-x-x-x-x----------------------------------------------------------|
B|-x-x-x-x-x-x-x-x----------------------------------------------------------|
G|-x-x-x-x-x-x-x-x----------------------------------------------------------|
D|-x-x-x-x-x-x-x-x----------------------------------------------------------|
A|-x-x-x-x-x-x-x-x----------------------------------------------------------|
E|-x-x-x-x-x-x-x-x----------------------------------------------------------|

Guitar 2
e|-x-x-x-x-x-x-x-x----------------------------------------------------------|
B|-x-x-x-x-x-x-x-x----------------------------------------------------------|
G|-x-x-x-x-x-x-x-x----------------------------------------------------------|
D|-x-x-x-x-x-x-x-x----------------------------------------------------------|
A|-x-x-x-x-x-x-x-x----------------------------------------------------------|
E|-x-x-x-x-x-x-x-x----------------------------------------------------------|

No Audible Guitar - Bridge (1:50)

Guitar 1 (Slight Distortion) - Chorus (2:18)
e|-----------------------------------------------------x-x-x-x-----x-x-x-x--|
B|-----------------------------------------------------x-x-x-x-----x-x-x-x--|
G|-------------------------------------------------5-5-x-x-x-x-5-5-x-x-x-x--|
D|-------------------5-5-------------7-7-7-7-7-7-7-5-5-x-x-x-x-5-5-x-x-x-x--|
A|-----------------------5-2h3p2-----7-7-7-7-7-7-7-3-3-x-x-x-x-3-3-x-x-x-x--|
E|-------------------------------3h5-5-5-5-5-5-5-5-----x-x-x-x-----x-x-x-x--|

Guitar 2 (Clean) - Chorus (2:18)	
e|-3-3-3-3-3-3-3-3-0-0-0-0-0-0-0-0-----------------0-0-x-x-x-x-0-0-x-x-x-x--|
B|-3-3-3-3-3-3-3-3-1-1-1-1-1-1-1-1-1-1-1-1-1-1-1-1-1-1-x-x-x-x-1-1-x-x-x-x--|
G|-0-0-0-0-0-0-0-0-0-0-0-0-0-0-0-0-2-2-2-2-2-2-2-2-0-0-x-x-x-x-0-0-x-x-x-x--|
D|-0-0-0-0-0-0-0-0-2-2-2-2-2-2-2-2-2-2-2-2-2-2-2-2-2-2-x-x-x-x-2-2-x-x-x-x--|
A|-2-2-2-2-2-2-2-2-3-3-3-3-3-3-3-3-----------------3-3-x-x-x-x-3-3-x-x-x-x--|
E|-3-3-3-3-3-3-3-3-------------------------------------x-x-x-x-----x-x-x-x--|

Guitar 1 (Slight Distortion) - Chorus (2:33)
e|-----------------------------------------------------x-x-x-x-----x-x-x-x--|
B|-----------------------------------------------------x-x-x-x-----x-x-x-x--|
G|-------------------------------------------------5-5-x-x-x-x-5-5-x-x-x-x--|
D|-5-5-5-5-5-5-5-5---5-5-------------7-7-7-7-7-7-7-5-5-x-x-x-x-5-5-x-x-x-x--|
A|-5-5-5-5-5-5-5-5-------5-2h3p2-----7-7-7-7-7-7-7-3-3-x-x-x-x-3-3-x-x-x-x--|
E|-3-3-3-3-3-3-3-3---------------3h5-5-5-5-5-5-5-5-----x-x-x-x-----x-x-x-x--|

Guitar 2 (Clean) - Chorus (2:33)	
e|-3-3-3-3-3-3-3-3-0-0-0-0-0-0-0-0-----------------0-0-x-x-x-x-0-0-x-x-x-x--|
B|-3-3-3-3-3-3-3-3-1-1-1-1-1-1-1-1-1-1-1-1-1-1-1-1-1-1-x-x-x-x-1-1-x-x-x-x--|
G|-0-0-0-0-0-0-0-0-0-0-0-0-0-0-0-0-2-2-2-2-2-2-2-2-0-0-x-x-x-x-0-0-x-x-x-x--|
D|-0-0-0-0-0-0-0-0-2-2-2-2-2-2-2-2-2-2-2-2-2-2-2-2-2-2-x-x-x-x-2-2-x-x-x-x--|
A|-2-2-2-2-2-2-2-2-3-3-3-3-3-3-3-3-----------------3-3-x-x-x-x-3-3-x-x-x-x--|
E|-3-3-3-3-3-3-3-3-------------------------------------x-x-x-x-----x-x-x-x--|
                                                                             
Guitar 1 (Slight Distortion) - Chorus (2:41)
e|-----------------------------------------------------x-x-x-x-----x-x-x-x-o|
B|-----------------------------------------------------x-x-x-x-----x-x-x-x-o|
G|-----------------7-7-7-7-7-7-7-7-----------------5-5-x-x-x-x-5-5-x-x-x-x-o|
D|-5-5-5-5-5-5-5-5-5-5-5-5-5-5-5-5-7-7-7-7-7-7-7-7-5-5-x-x-x-x-5-5-x-x-x-x-o|
A|-5-5-5-5-5-5-5-5-5-5-5-5-5-5-5-5-7-7-7-7-7-7-7-7-3-3-x-x-x-x-3-3-x-x-x-x-o|
E|-3-3-3-3-3-3-3-3-----------------5-5-5-5-5-5-5-5-----x-x-x-x-----x-x-x-x-o|

Guitar 2 (Clean) - Chorus (2:41)	
e|-3-3-3-3-3-3-3-3-0-0-0-0-0-0-0-0-----------------0-0-x-x-x-x-0-0-x-x-x-x-o|
B|-3-3-3-3-3-3-3-3-1-1-1-1-1-1-1-1-1-1-1-1-1-1-1-1-1-1-x-x-x-x-1-1-x-x-x-x-o|
G|-0-0-0-0-0-0-0-0-0-0-0-0-0-0-0-0-2-2-2-2-2-2-2-2-0-0-x-x-x-x-0-0-x-x-x-x-o|
D|-0-0-0-0-0-0-0-0-2-2-2-2-2-2-2-2-2-2-2-2-2-2-2-2-2-2-x-x-x-x-2-2-x-x-x-x-o|
A|-2-2-2-2-2-2-2-2-3-3-3-3-3-3-3-3-----------------3-3-x-x-x-x-3-3-x-x-x-x-o|
E|-3-3-3-3-3-3-3-3-------------------------------------x-x-x-x-----x-x-x-x-o|

Guitar 1 (Slight Distortion) - Outro
e|--------------------------------------------------------------------------|
B|--------------------------------------------------------------------------|
G|--------------------------------------------------------------------------|
D|-5~-----------------------------------------------------------------------|
A|-5~-----------------------------------------------------------------------|
E|-3~-----------------------------------------------------------------------|

Guitar 2 (Clean) - Outro
e|-3~-----------------------------------------------------------------------|
B|-3~-----------------------------------------------------------------------|
G|-0~-----------------------------------------------------------------------|
D|-0~-----------------------------------------------------------------------|
A|-2~-----------------------------------------------------------------------|
E|-3~-----------------------------------------------------------------------|

Feel free to rate or comment. Thanks for checking out this tab!

==========================================================================|
| o| repeat measure
| /  slide up
| \  slide down
| h  hammer-on
| p  pull-off
| ~  let ring
| +  harmonic
| x  Mute note
============================================================================|
Tap to rate this tab
# A B C D E F G H I J K L M N O P Q R S T U V W X Y Z