Ruth - Dead Giveaway tab

Song: Dead Giveaway
Artist: Ruth
Album: Anorak
Tabbed by: Flamingbanana

Tuning: Standard

Verse 1:

e|-----------------|
B|-------3---------|
G|-----2---2-------|
D|---0-------------|  x16
A|-----------------|
E|-----------------|

e|---------------------------------------------------------------------|
B|------3-------3-------3-------3-------3-------3-------3-------3------|
G|----2---2---2---2---2---2---2---2---2---2---2---2---2---2---2---2----|
D|--0-------0-------2-------2-------4-------4-------5-------5----------|  x3
A|---------------------------------------------------------------------|
E|---------------------------------------------------------------------|

e|--------------|
B|------3-------|
G|----2---2-----|
D|--5-----------| x5
A|--------------|
E|--------------|

Chorus:

 D/F#              G                  F# Em 
I've made up my mind, I'm yours and your mine
                      Asus                  A
I'm telln' you this time, nothin's gona change that 
 D/F#              G                  F# Em 
I've made up my mind, I'm yours and your mine
                      Asus                  A
I'm telln' you this time, nothin's gona change that 

Verse 2: same as verse 1

Bridge:

 Bm                     A                      
Cause if I run from you, I know you'll rescue me
 D/F#                           G
Cause my heart is yours, for always
 Bm                     A                      
Cause if I run from you, I know you'll rescue me
 D/F#                           G
Cause my heart is yours, for always
 A
You amaze me

Outro:

e|---------------------------------------------------------------------|
B|------3-------3-------3-------3-------3-------3-------3-------3------|
G|----2---2---2---2---2---2---2---2---2---2---2---2---2---2---2---2----|
D|--0-------0-------2-------2-------4-------4-------5-------5----------|  x2
A|---------------------------------------------------------------------|
E|---------------------------------------------------------------------|

e|--------------|
B|------3-------|
G|----2---2-----|
D|--5-----------| x5
A|--------------|
E|--------------|

That's it, Enjoy!
Tap to rate this tab
 
# A B C D E F G H I J K L M N O P Q R S T U V W X Y Z