Song name
# A B C D E F G H I J K L M N O P Q R S T U V W X Y Z

Ruth - Mrturner tab

-------------------------------------------------------------------------------
			     MR.TURNER - Ruth (official site:  http://www.ruthrock.com/
-------------------------------------------------------------------------------
Tabbed by: Rocksstarlm
Email:adin2thenoise@aim.com

Tuning:Standard (eBGDAE)
Verse 1
e|-----------------------------------------------------------------------------|
B|-----------------------------------------------------------------------------|
G|---6-7------------------67-----------------6-7----------------6-7------------|x2
D|-------9-7--5-4-3-0--------9-7--4-5-7-9------9-7--4-5-3-0--------9-7-7-------|
A|--0-------------------0------------------0-------------------0---------------|
E|-----------------------------------------------------------------------------|

Chorus
e|----------------------------------------------------------------|
B|----------------------------------------------------------------|
G|-------7--------7--------7----------7--------7--------9---------|x2
D|---7--------7--------7---7-------7--------7--------7--9---------|
A|-5---0----0---0--------0------5---0----0---0--------0-----------|
E|-------------------0-----------------------------0--------------|
*then strum:
e|-------------|
B|-------------|
G|-7-7-9-------|
D|-7-7-9-------|
A|-5-0-7-------|
E|-------------|

Verse 2
e|-----------------------------------------------------------------------------|
B|-----------------------------------------------------------------------------|
G|---6-7------------------67-----------------6-7----------------6-7------------|x2
D|-------9-7--5-4-3-0--------9-7--4-5-7-9------9-7--4-5-3-0--------9-7-7-------|
A|--0-------------------0------------------0-------------------0---------------|
E|-----------------------------------------------------------------------------|

Play Chorus Again

Then Play:
      G      D    Cadd9  x4      Cadd9 x3
e|--3---2----------|---------------|
B|--3---3--3-------|----3----------|
G|------2----------|---------------|
D|---------2-------|---2-----------|
A|--2------3-------|---3-----------|
E|--3--------------|---------------|

       x8  x8   x8  x8  x8
e|-----|-----------------|
B|-----|----7------------|
G|--7--|-7--7--9---------|x4
D|--7--|-7--5--9--7------|
A|--5--|-5-----7--7------|
E|-----|-----------5-----|

      G      D    Cadd9  x4      Cadd9 x3         x8  x8
e|--3---2----------|----------------------|
B|--3---3--3-------|----3-----------------|
G|------2----------|----------------7---9-|
D|---------2-------|---2------------7---9-|
A|--2------3-------|---3------------5---7-|
E|--3--------------|----------------------|

Then play the verse once


The End

| /  slide up
| \  slide down
| h  hammer-on
| p  pull-off
| ~  vibrato
| +  harmonic
| x  Mute note
===============================================================================
Tap to rate this tab
# A B C D E F G H I J K L M N O P Q R S T U V W X Y Z