Guitaretab - guitar tabs
Song name
# A B C D E F G H I J K L M N O P Q R S T U V W X Y Z

Rutles - Lets Be Natural tab

------------------------------------------------------------------------------
			    Letís be Natural - The Rutles
------------------------------------------------------------------------------
Use thumb for bass notes ( all notes on E, A or D)
Use Index finger on G string, your middle finger on B string and wedding finger on e
Thats basically how you fingerpick with your right hand for all songs that are
Im not sure if this song is fingerpicked but it sounds nice if youd do. I made this up 
ear in about 10 minutes, im not even sure what the chord names are... I think this is the 
song
maybe repeated. Enjoy.

Intro/Verse 1
e|--------2--------|--------2--------|--------2-----------------|
B|----3-----3---3--|----2-----2---2--|----1-----1---1-----------|
G|------2-----2----|------2-----2----|------2-----2-------------|
D|-0---------------|-0---------------|-0------------------------|
A|-----------------|-----------------|--------------------------|
E|-----------------|-----------------|--------------------------|
[ Tab from: http://www.guitaretab.com/r/rutles/80124.html ]
e|--------------3--------|--------3--------|--------2----2h3-2--|
B|----------3-----3---3--|----3-----3---3--|----3------3-3(3)3--|
G|------------4-----4----|------3-----3----|------2-------------|
D|-0-2-4-5---------------|-5---------------|-0------------------|
A|-----------------------|-----------------|--------------------|
E|-----------------------|-----------------|--------------------|

Chorus
e|-2-----2-----2-----1------------------------------------------|
B|----3-----3-----3-----3---------------------------------------|
G|--------------------------------------------------------------|
D|-0------------------------------------------------------------|
A|-------3-----2-----1------------------------------------------|
E|--------------------------------------------------------------|

Verse 2
e|--------2--------|--------2--------|--------2-----------------|
B|----3-----3---3--|----2-----2---2--|----1-----1---1-----------|
G|------2-----2----|------2-----2----|------2-----2-------------|
D|-0---------------|-0---------------|-0------------------------|
A|-----------------|-----------------|--------------------------|
E|-----------------|-----------------|--------------------------|

e|-2-3-5--------3--------|--------3--------|--------2----2h3-2--|
B|----------3-----3---3--|----3-----3---3--|----3------3-3(3)3--|
G|------------4-----4----|------3-----3----|------2-------------|
D|-0-2-4-5---------------|-5---------------|-0------------------|
A|-----------------------|-----------------|--------------------|
E|-----------------------|-----------------|--------------------|

SYMBOLS
| h  hammer-on
| p  pull-off

===========================================================
Related for Lets Be Natural tab