Guitaretab - guitar tabs
Song name
# A B C D E F G H I J K L M N O P Q R S T U V W X Y Z
Home / R / Ruts / Sus tab

Ruts - Sus tab

Band: The Ruts
Song: S.U.S

Intro
e|------------------------------------------------|
b|------------------------------------------------|
g|------------------------------------------------|
d|------------------------------------------------|x4
a|-7-7-7--10-10-10--9-9-9--12-12-12--9-9-10-10----|
e|-0-0-0--0--0--0---0-0-0--0--0--0---0-0-0--0-----|
  pm_________________________________________
[ Tab from: http://www.guitaretab.com/r/ruts/98256.html ]
Then play the same riff four times with an effect
 
Verse
Bass plays first then come in with the intro riff at "we've got you with sus,
you look to obvious"

Chorus
e|------------------------------------------------|
b|------------------------------------------------|
g|------------------------------------------------|
d|------------------------------------------------|x4
a|-11-10-11-12-14-11------------------------------|
e|-9--8--9--10-12-9-------------------------------|

Order

Intro x4
Intro x4 (with effects)
Verse
Chorus
Verse
Chorus
solo
Verse
Chorus
solo

Second TAB I've done so again don't be suprised if its crappy :)



  
Related for Sus tab