Song name
# A B C D E F G H I J K L M N O P Q R S T U V W X Y Z

Rvivr - Resilient Bastard chords

Highlighted       Show chord diagrams
Intro goes something like this: [E G# C# B]

e|----------------------------------------------------------------------|
B|---------------------------------------------7h9---7h9---9--7b--------|
G|8h9p8---4h6-------------------------8h9p8-----------------------------|
D|--------------4h6-6p4--6----------------------------------------------|
A|----------------------------------------------------------------------|
E|----------------------------------------------------------------------|


[Verse 1]
E       G#            C#
And the script reads,

  B
"Your name right here,

E              G#
says something rude to me,

C#          B
rude to me, rude to me"

E       G#                       
I don't think about it

C#      B
I don't linger on it

E           G#          C#         A 
rude to me, rude to me, rude to me

[Chorus]
A    B       E           G#
     I'm not hurt, I'm a resilient bastard
A    B         E         G# 
     I'm okay, I'll wait another day
A    B             G#         C#
     I'm not scared, I'm just unaware
A         B          E
     or I just don't care



[Solo] (Verse chords are rhythm)
e|--------------------------------------------------7----7-----7-----7b--|
B|-----------------------------------------7h9---7h9--7h9---7h9--7h9-9b--|
G|8h9p8---4h6-----------4------------8h9p8-------------------------------|
D|--------------4h6--4h6----6--------------------------------------------|
A|-----------------------------------------------------------------------|
E|-----------------------------------------------------------------------|


[Verse 2]
E       G#           C#
And the book reads,

  B
"Your name right here,

E              G#
says something stupid,

C#      B
again"

E       G#                       
I don't think about it

C#      B
I don't linger on it

E       G#      C#      A
stupid, stupid, stupid


[Chorus Switcheroo]
A    B       E           G#
     I'm not hurt, I'm a resilient bastard
A    B         E         G# 
     I'm okay, I'll wait another day
A    B             G#         C#
     I'm not scared, I'm just unaware
A         B          G#        A
     or I just don't caaaaaaaaaare

[Final Chorus] (lead part is just 7th fret on top E)
A    B       E           G#
     I'm not hurt, I'm a resilient bastard
A    B         E         G# 
     I'm okay, I'll wait another day
A    B             G#         C#  (Lead part is bend fret 4 on top e)
     I'm not scared, I'm just unaware
A         B          E
     or I just don't care

*HUGE PICKSLIDE OUT*
Tap to rate this tab
# A B C D E F G H I J K L M N O P Q R S T U V W X Y Z