Song name
# A B C D E F G H I J K L M N O P Q R S T U V W X Y Z

Rx Bandits - What If tab

e ------------------------------------------
B ------------------------------------------
G ------------------------------------------   
D -(bass intro)----7-------9----------------   (x2)
A -----------------7(x16)--9(x8)------------   2nd time to chorus
E -----------------5(fast)-7----------------

chorus:
e ----------------------------------------------
B ----------------------------------------------
G -7-----9--------7-----------------------------  (x2)
D -7--7--9--9--5--7--7--------------------------
A -5--7--7--9--5--7--7--------------------------
E ----5-----7--3-----5--------------------------


On 4th verse,   D -9-9-       then D --9-9-9-9
                A -9-9- (x4)       A --9-9-9-9  
                E -7-7-            E --7-7-7-7 


Solo: (x2)
e ---------------------------------------------------------------------------
B ---------------------------------------------------------------------------
G ---------------------------------------------------------------------------
D -----------------5-9-9-7-5---5-------------------------------------5-9-----
A --5--5-7-9-7-7-9-----------9---7-7-9-9-7-5-----5-9-7-7-7-7-7-7-7-9---------
E -------------------------------------------5-5-----------------------------



Ending:   D --999--7--9-
          A --999--7--9-
          E --777--5--7-
Tap to rate this tab
# A B C D E F G H I J K L M N O P Q R S T U V W X Y Z